Song name
# A B C D E F G H I J K L M N O P Q R S T U V W X Y Z

Misc Computer Games - Toejam And Earl Theme tab

Toe Jammin (Theme Song) bass tab
Played by Toejam & Earl (John Baker)

Origional Compostion: 	John Baker
Artist: 		Toejam & Earl
Song:			Toe Jammin
Tabbed By:		mambazo@gmail.com

This is the bass part of the theme tune to the origional Toejam & Earl on
the sega megadrive.

Not your usual 4/4 tab, its a half-time shuffle (triplet feel).

Its note for note perfect and sounds great with the guitar part.

Long live funk.



PART A

    1  .  :  2  .  :  3  .  :  4  .  :    1  .  :  2  .  :  3  .  :  4  .  : 

G |----------------12----------10-------|----------10----9--10----12----------|
D |-------------------------------------|-------------------------------------|
A |-10----------------------------------|-------------------------------------|
E |-------------------------------------|-------------------------------------|

G |-------------------------------------|-------------------------------------|
D |-------------------------------------|-------------------------------------|
A |-10-------------------------10----10-|-------------------------------------|
E |-------------------------------------|-------------------------------------|

G |----------------12----------10-------|----------10----9--10----12----------|
D |-------------------------------------|-------------------------------------|
A |-10----------------------------------|-------------------------------------|
E |-------------------------------------|-------------------------------------|

G |-------------------------------------|----------------------------17-------|
D |-------------------------------------|----------15-------------------------|
A |-10-------------------------10-------|-------------------15----------------|
E |----------------------------------13-|-------------------------------------|

G |----------------12----------10-------|----------10----9--10----12----------|
D |-------------------------------------|-------------------------------------|
A |-10----------------------------------|-------------------------------------|
E |-------------------------------------|-------------------------------------|

G |-------------------------------------|-------------------------------------|
D |-------------------------------------|-------------------------------------|
A |-10-------10-------8--------8--------|-------------------8--------9--------|
E |-------------------------------------|-10-------10-------------10----------|

G |----------------12----------10-------|----------10----9--10----12-------12-|
D |-------------------------------------|-------------------------------------|
A |-10----------------------------------|-------------------------------------|
E |-------------------------------------|-------------------------------------|

G |-15----15-14-------12-------------10-|----------10-------12-------12-------|
D |-------------------------------------|-------12-------12-------------------|
A |-------------------------------------|-------------------------------------|
E |-------------------------------------|-------------------------------------|

PART B

G |-------------------------------------|----------2--------3--------4--------|
D |-------------------------------------|-------------------------------------|
A |-10-------------8-----------10-------|-------------------------------------|
E |-------------------------------------|-------3-----------------------------|

G |-5--------------5-----------5-----7--|----------7--------10-7--------------|
D |-------------------------------------|-------------------------10-8--------|
A |-------------------------3-----------|-------5--------------------------8--|
E |-------------------------------------|-------------------------------------|

G |-------------------------------------|----------2--------3--------4--------|
D |-------------------------------------|-------------------------------------|
A |-10-------------8-----------10-------|-------------------------------------|
E |-------------------------------------|-------3-----------------------------|

G |-5--------------5-----------5--------|-------5-----------------3-----------|
D |-------------------------------------|-------------------------------------|
A |-------------------------3-----------|-3-----------------1-----------------|
E |-------------------------------------|-------------------------------------|

G |-------------------------------------|----------2--------3--------4--------|
D |-------------------------------------|-------------------------------------|
A |-10-------------8-----------10-------|-------------------------------------|
E |-------------------------------------|-------3-----------------------------|

G |-5--------------5-----------5-----7--|----------7--------10-7--------------|
D |-------------------------------------|-------------------------10-8--------|
A |-------------------------3-----------|-------5--------------------------8--|
E |-------------------------------------|-------------------------------------|

G |-------------------------------------|----------2--------3--------4--------|
D |-------------------------------------|-------------------------------------|
A |-10-------------8-----------10-------|-------------------------------------|
E |-------------------------------------|-------3-----------------------------|

G |-5--------------5-----------5-----7--|-------------------------------------|
D |-------------------------------------|-------------------------------------|
A |-------------------------3-----------|-------5--7--------8--------9--------|
E |-------------------------------------|-------------------------------------|
Tap to rate this tab
# A B C D E F G H I J K L M N O P Q R S T U V W X Y Z