Song name
# A B C D E F G H I J K L M N O P Q R S T U V W X Y Z

Misc Computer Games - Dungeon Siege Theme chords

Title  : Dungeon Siege Theme
Tab by : Vaagur
E-Mail : deathknighthg@hotmail.com

|-------------------------------------4-4-4-4-------------|
|-5-5-5-4-4---5-5-5-4-4---4-4-4-4-5-7---------7-7-5-7-7-7-|
|-----------6-----------6---------------------------------|
|---------------------------------------------------------|
|---------------------------------------------------------|
|---------------------------------------------------------|

|-4h5p4---------------------------------------------------|
|-------7-5-5-5-5-4---4-4---------------------------------|
|-------------------6-------------------------------------|
|-------------------------6-------------------------------|
|---------------------------------------------------------|
|---------------------------------------------------------|
Tap to rate this tab
 
# A B C D E F G H I J K L M N O P Q R S T U V W X Y Z