Song name
# A B C D E F G H I J K L M N O P Q R S T U V W X Y Z

Misc Computer Games - Gitaroo Man - Bee Jam Blues tab

-------------------------------------------------------------------------------
     Bee Jam Blues - Coil/Gitaroo man
-------------------------------------------------------------------------------
Tabbed by: Strumster77
Email:belisariolara@yahoo.com


I just took a piano arrangement by Marty Hicks on put it on tab. Sounds pretty cool, 
improvise over AbM7 chords and Db7 chords.(The intro 
 <-- Piano arrangement
This is my first tab.
Tuning:Standard

e|----4----------4----4----|----4----------4----4----|------------------------|
B|----4----------4----4----|----0----------0----0----|------------------------|
G|----4----------4----4----|----4----------4----4----|--------x2--------------|
D|----4----------4----4----|----3----------3----3----|------------------------|
A|-------------------------|----4----------4----4----|------------------------|
E|-------------------------|-------------------------|------------------------|

e|----------------------------------------------------------------------------|
B|-----------------------------------------2----------------------------------|
G|-----------1----3-----------3/4----3-----------------4----3-----------------|
D|--1----4--------------------------------------------------------1-----------|
A|----------------------------------------------------------------------------|
E|----------------------------------------------------------------------------|

e|----------------------------------------------------------------------2-----|
B|-----------------------------------------2-----------0h2h3p2p0-----4-----4--|
G|-----------1----3-----------3/4----3----------------------------------------|
D|--1----4--------------------------------------------------------------------|
A|----------------------------------------------------------------------------|
E|----------------------------------------------------------------------------|


e|----------------------------------------------------------------------------|
B|---------------------------2----4------------2------------------------------|
G|---1----3----4----------4----4---------------------4-------------1----------|
D|-------------------------------------------------------4----4---------------|
A|----------------------------------------------------------------------------|
E|----------------------------------------------------------------------------|
Tap to rate this tab
# A B C D E F G H I J K L M N O P Q R S T U V W X Y Z