Song name
# A B C D E F G H I J K L M N O P Q R S T U V W X Y Z

Misc Computer Games - Prince Of Persia Warrior Within - Conflict At The Entrance tab

"Conflict at the Entrance" ("Crow Master Battle")
Prince of Persia Warrior Within OST

Tabbed by Desmond_Miles

Tunning: Drop D (D A D G B e)

Tablature legend:
* = Palm Mute (PM)


Main riff:
e|--------------------|-----------------|--------------------|-----------------|--------------------|
B|--------------------|-----------------|--------------------|-----------------|--------------------|
G|--------------------|-----------------|--------------------|-----------------|--------------------|
D|--------------------|-----------------|--------------------|-----------------|--------------------|
A|-10-9---10-9---10-9-|-----------------|-10-9---10-9---10-9-|---5-5-5-5-4-4-4-|-10-9---10-9---10-9-|
D|-10-9---10-9---10-9-|---5-5-5-5-4-4-4-|-10-9---10-9---10-9-|---5-5-5-5-4-4-4-|-10-9---10-9---10-9-|

e|-----------------|-----------------|-----------------|
B|-----------------|-----------------|-----------------|
G|-----------------|-----------------|-----------------|
D|-----------------|-----------------|-----------------|
A|---5-5-5-5-4-4-4-|-5-4---5-4---5-4-|-5-7-5-4-5-4-4---|
D|---5-5-5-5-4-4-4-|-5-4---5-4---5-4-|-5-7-5-4-5-4-4---|


Verse:
e|-----------------|-----------------|-----------------|-----------------|-----------------|
B|-----------------|-----------------|-----------------|-----------------|-----------------|
G|-----------------|-----------------|-----------------|-----------------|-----------------|
D|-----------------|-----------------|-----------------|-----------------|-----------------|
A|-10-9------------|-----------5---5-|-10-9------------|---------5-5-4-4-|-10-9------------|
D|-10-9------------|-----------5---5-|-10-9------------|---------5-5-4-4-|-10-9------------|

e|-----------------|-----------------|-----------------|
B|-----------------|-----------------|-----------------|
G|-----------------|-----------------|-----------------|
D|-----------------|-----------------|-----------------|
A|-----------------|-5-4-------------|-5-4-5-7-5-4-5-4-|
D|-----------------|-5-4-------------|-5-4-5-7-5-4-5-4-|


Bridge:
e|-----------------|-----------------|-----------------|-----------------|
B|-----------------|-----------------|-----------------|-----------------|
G|-----------------|-----------------|-----------------|-----------------|
D|-----4-----4---4-|-----5-----5---5-|-----4-----4---4-|-----5-----5---5-|
A|-----------------|-----------------|-----------------|-----------------|
D|-4-4---4-4---4---|-5-5---5-5---5---|-4-4---4-4---4---|-5-5---5-5---5---|
   * * * * * * * *   * * * * * * * *   * * * * * * * *   * * * * * * * *
e|-----------------|-----------------|-----------------|-----------------|
B|-----------------|-----------------|-----------------|-----------------|
G|-----------------|-----------------|-----------------|-----------------|
D|-----4-----4---4-|-----5-----5---5-|-----4-----4---4-|-----5-----5---5-|
A|-----------------|-----------------|-----------------|-----------------|
D|-4-4---4-4---4---|-5-5---5-5---5---|-4-4---4-4---4---|-5-5---5-5---5---|

e|-----------------|-----------------|-----------------|-----------------|
B|-----------------|-----------------|-----------------|-----------------|
G|-----------------|-----------------|-----------------|-----------------|
D|-----------------|-----------------|-----------------|-----------------|
A|-5-5-5-4-4-4-5-5-|-5-4-4-4---------|-5-5-5-4-4-4-5-5-|-5-4-4-4---------|
D|-5-5-5-4-4-4-5-5-|-5-4-4-4---------|-5-5-5-4-4-4-5-5-|-5-4-4-4---------|

e|-----------------|-----------------|-----------------|-----------------|
B|-----------------|-----------------|-----------------|-----------------|
G|-----------------|-----------------|-----------------|-----------------|
D|-----------------|-----------------|-----------------|-----------------|
A|-5-5-5-4-4-4-5-5-|-5-4-4-4-4-4-4-4-|-5-5-5-4-4-4-5-5-|-5-4-4-4-4-4-4-4-|
D|-5-5-5-4-4-4-5-5-|-5-4-4-4-4-4-4-4-|-5-5-5-4-4-4-5-5-|-5-4-4-4-4-4-4-4-|


Solo:
e|--------------------|----------------------|
B|--------------------|----------------------|
G|--------------------|----------------------|
D|--------------------|----------------------|
A|--------------------|----------------------|
D|-9-9-9-10-10-10-7-7-|-7-10-10-10-7-7-10-10-| (x4)
   * * * *  *  *  * *   * *  *  *  * * *  *
e|--------------------|----------------------|
B|--------------------|----------------------|
G|--------------------|----------------------|
D|--------------------|----------------------|
A|-9-9-9-10-10-10-7-7-|-7-10-10-10-7-7-10-10-|
D|--------------------|------------7-7-10-10-|

Final riff:
e|-----------------|-----------------|-----------------|-----------------|
B|-----------------|-----------------|-----------------|-----------------|
G|-----------------|-----------------|-----------------|-----------------|
D|-----------------|-----------------|-----------------|-----------------|
A|---5-5-5-5-4-4-4-|-5-4---5-4---5-4-|-5-7-5-4-5-4-4-4-|-4---------------|
D|---5-5-5-5-4-4-4-|-5-4---5-4---5-4-|-5-7-5-4-5-4-4-4-|-4---------------|


Song structure
--------------
Main riff  (x2)
Verse      (x2)
Bridge     (x1)
Solo       (x1)
Main riff  (x2)
Verse      (x2)
Bridge     (x1)
Solo       (x1)
Main riff  (x1)
Final riff (x1)
Tap to rate this tab
# A B C D E F G H I J K L M N O P Q R S T U V W X Y Z