Song name
# A B C D E F G H I J K L M N O P Q R S T U V W X Y Z

Misc Computer Games - Sacred Ground Theme tab

Sacred Ground (Wu Zhang Plains theme) [Dynasty Warriors 2/3]
------------------------------------------------------------
Tuning: Standard (E G B D A e)

Legend:
h=hammer on
x=palm mute/finger mute (either one is fine)


Guitar 1
---------

Intro
------

E|-------------------------------------------------------------------------|
B|-------------------------------------------------------------------------|
G|---5-------------5-------------------------------------------------------|
D|---5-----x-x-x---5------------------6----x-x-x-6---------3---------------|
A|---3-----x-x-x---3------------------6----x-x-x-6---------3---------------|
E|---------x-x-x----------------------4----x-x-x-4---------1---------------|


X|-------------------------------------------------------------------------|
X|-------------------------------------------------------------------------|
X|---5-------------5---------------------------------------6---------------|
X|---5-----x-x-x---5------------------6----x-x-x-6---------6---------------|
X|---3-----x-x-x---3------------------6----x-x-x-6---------4---------------|
X|---------x-x-x----------------------4----x-x-x-4-------------------------|


Main Riff(1)
-------------
e|---------------------------------------------|
B|-/8----8h9-8~~~~------8----------------------|
G|---10------------8h10---10-8-7--8--5-/5------|
D|---------------------------------------------|
A|---------------------------------------------|
E|---------------------------------------------|

Main Riff(2)
------------
e|---------------------------------------------|
B|-/8----8h9-8~~~~------8--------------/6------|
G|---10------------8h10---10-8-7--8--5---------|
D|---------------------------------------------|
A|---------------------------------------------|
E|---------------------------------------------|








Bridge
-------
This one takes a decent amount of stamina, but it's not a very hard riff if
you know how to finger mute.

E|--------------------------------------------------------------------------|
B|--------------------------------------------------------------------------|
G|--------------------------------------------------------------------------|
D|---5-5-x-x-x-x-5-5-x-x-x-x-5-5-x-x-5-5-x-x-x-x-5-5-x-x-x-x-5-5-x-x--------|
A|---5-5-x-x-x-x-5-5-x-x-x-x-5-5-x-x-5-5-x-x-x-x-5-5-x-x-x-x-5-5-x-x--------|
E|---3-3-x-x-x-x-3-3-x-x-x-x-3-3-x-x-3-3-x-x-x-x-3-3-x-x-x-x-3-3-x-x--------|

E|--------------------------------------------------------------------------|
B|--------------------------------------------------------------------------|
G|--------------------------------------------------------------------------|
D|---6-6-x-x-x-x-6-6-x-x-x-x-6-6-x-x-6-6-x-x-x-x-6-6-x-x-x-x-6-6-x-x--------|
A|---6-6-x-x-x-x-6-6-x-x-x-x-6-6-x-x-6-6-x-x-x-x-6-6-x-x-x-x-6-6-x-x--------|
E|---4-4-x-x-x-x-4-4-x-x-x-x-4-4-x-x-4-4-x-x-x-x-4-4-x-x-x-x-4-4-x-x--------|

E|--------------------------------------------------------------------------|
B|--------------------------------------------------------------------------|
G|--------------------------------------------------------------------------|
D|---3-3-x-x-x-x-3-3-x-x-x-x-3-3-x-x-3-3-x-x-x-x-3-3-x-x-x-x-3-3-x-x--------|
A|---3-3-x-x-x-x-3-3-x-x-x-x-3-3-x-x-3-3-x-x-x-x-3-3-x-x-x-x-3-3-x-x--------|
E|---1-1-x-x-x-x-1-1-x-x-x-x-1-1-x-x-1-1-x-x-x-x-1-1-x-x-x-x-1-1-x-x--------|

E|--------------------------------------------------------------------------|
B|--------------------------------------------------------------------------|
G|--------------------------------------------------------------------------|
D|---5-5-x-x-x-x-5-5-x-x-x-x-5-5-x-x-5-5-x-x-x-x-5-5-x-x-x-x-5-5-x-x--------|
A|---5-5-x-x-x-x-5-5-x-x-x-x-5-5-x-x-5-5-x-x-x-x-5-5-x-x-x-x-5-5-x-x--------|
E|---3-3-x-x-x-x-3-3-x-x-x-x-3-3-x-x-3-3-x-x-x-x-3-3-x-x-x-x-3-3-x-x--------|

E|--------------------------------------------------------------------------|
B|--------------------------------------------------------------------------|
G|--------------------------------------------------------------------------|
D|---6-6-x-x-x-x-6-6-x-x-x-x-6-6-x-x-6-6-x-x-x-x-6-6-x-x-x-x-6-6-x-x--------|
A|---6-6-x-x-x-x-6-6-x-x-x-x-6-6-x-x-6-6-x-x-x-x-6-6-x-x-x-x-6-6-x-x--------|
E|---4-4-x-x-x-x-4-4-x-x-x-x-4-4-x-x-4-4-x-x-x-x-4-4-x-x-x-x-4-4-x-x--------|

E|--------------------------------------------------------------------------|
B|--------------------------------------------------------------------------|
G|---6-6---------6-6---------6-6-----6-6---------6-6---------6-6------------|
D|---6-6-x-x-x-x-6-6-x-x-x-x-6-6-x-x-6-6-x-x-x-x-6-6-x-x-x-x-6-6-x-x--------|
A|---4-4-x-x-x-x-4-4-x-x-x-x-4-4-x-x-4-4-x-x-x-x-4-4-x-x-x-x-4-4-x-x--------|
E|-------x-x-x-x-----x-x-x-x-----x-x-----x-x-x-x-----x-x-x-x-----x-x--------|


E|--------------------------------------------------------------------------|
B|--------------------------------------------------------------------------|
G|--------------------------------------------------------------------------|
D|---5-5-x-x-x-x-5-5-x-x-x-x-5-5-x-x-5-5-x-x-x-x-5-5-x-x-x-x-5-5-x-x--------|
A|---5-5-x-x-x-x-5-5-x-x-x-x-5-5-x-x-5-5-x-x-x-x-5-5-x-x-x-x-5-5-x-x--------|
E|---3-3-x-x-x-x-3-3-x-x-x-x-3-3-x-x-3-3-x-x-x-x-3-3-x-x-x-x-3-3-x-x--------|

E|--------------------------------------------------------------------------|
B|--------------------------------------------------------------------------|
G|--------------------------------------------------------------------------|
D|---6-6-x-x-x-x-6-6-x-x-x-x-6-6-x-x-6-6-x-x-x-x-6-6-x-x-x-x-6-6-x-x--------|
A|---6-6-x-x-x-x-6-6-x-x-x-x-6-6-x-x-6-6-x-x-x-x-6-6-x-x-x-x-6-6-x-x--------|
E|---4-4-x-x-x-x-4-4-x-x-x-x-4-4-x-x-4-4-x-x-x-x-4-4-x-x-x-x-4-4-x-x--------|


E|--------------------------------------------------------------------------|
B|--------------------------------------------------------------------------|
G|--------------------------------------------------------------------------|
D|---8-8-x-x-x-x-8-8-x-x-x-x-8-8-x-x-8-8-x-x-x-x-8-8-x-x-x-x-8-8-x-x--------|
A|---8-8-x-x-x-x-8-8-x-x-x-x-8-8-x-x-8-8-x-x-x-x-8-8-x-x-x-x-8-8-x-x--------|
E|---6-6-x-x-x-x-6-6-x-x-x-x-6-6-x-x-6-6-x-x-x-x-6-6-x-x-x-x-6-6-x-x--------|

Outro
------

E|-----------------------------------------------|
B|-/8----8h9-8~~~~------8---------------8-9-11-13|
G|---10------------8h10---10--8--7-8-10----------|
D|-----------------------------------------------|
A|-----------------------------------------------|
E|-----------------------------------------------|

Song Order (guitar 1)
----------------------
Intro
Main Riff 1
Main Riff 2
Main Riff 1
Main Riff 2
Bridge
Main Riff 1
Main Riff 2
Main Riff 1
Outro
Tap to rate this tab
# A B C D E F G H I J K L M N O P Q R S T U V W X Y Z