Song name
# A B C D E F G H I J K L M N O P Q R S T U V W X Y Z

Misc Computer Games - James Bond 007 - Main Theme tab

Transcribed by: Spectrum420
Date: 12/19/09
Tuning: Standard Eadgbe

Hope you enjoy.



e:----------------|-----------|---------|-----------|
B:----------------|-----------|-2-3-4-3-|-2-3-4-3---|
G:----------------|-----------|---------|-----------|
D:--9-9-----9-9---|-9-9-9-9-9-|---------|-----------|
A:--9-9-----9-9---|-9-9-9-9-9-|---------|-----------|
E:--7-7-0---7-7-0-|-7-7-7-7-7-|---------|-----------|

e:------------------|-------------------|
B:------------------|-------------------|
G:------------------|-------------------|
D:------------------|-------------------|
A:------------------|-------------------|
E:-0-2-2-2-2--0-0-0-|-0-3-3-3-3--2-2-2--| x2

e:----------------|-----------------|
B:----------------|-----------------|
G:----------------|-----------------|
D:----------------|-----------------|
A:----------------|-----------------|
E:-0-2-2-2-2--0-0-|-0-3-3-3-3-2-2-0-|

e:----------------|
B:----------------|
G:----------------|
D:----------------|
A:-6-5-----2-0-2--|
E:----------------|

Repeat as much as wanted
Tap to rate this tab
 
# A B C D E F G H I J K L M N O P Q R S T U V W X Y Z