Song name
# A B C D E F G H I J K L M N O P Q R S T U V W X Y Z

Misc Computer Games - Red Alert 3 - Soviet March tab

----------------------------------------------------------------------------
			     SOVIET MARCH - Red Alert 3
----------------------------------------------------------------------------
Tabbed by: James Magro
Email: jamesmag350z@hotmail.com

This is my second tab..
This is the first part.. the rest is just a repetition, so just repeat the steps in the 
you hear them..
I think its quite good, although there are a few wrong notes.. if you have any 
email me or leave comments.. thanks..

Tuning: Standard

e|-------------------------------------------------------------------------|
B|-------------------------------------------------------------------------|
G|-------------------------------------------------------------------------|
D|-----7--8--7--5--7----7--5h7--3--3h5p3-----------------------------------|
A|--5-------------------------------------h5-------------------------------|
E|-------------------------------------------------------------------------|

e|-------------------------------------------------------------------------|
B|-------------------------------------------------------------------------|
G|-------------------------------------------------------------------------|
D|-----7--10--8--7--8----7--5h7--3--3h5p3----------------------------------|
A|--5--------------------------------------h5------------------------------|
E|-------------------------------------------------------------------------|

e|--------------------------------------------------------------------|
B|--------------------------------------------------------------------|play
G|--------------------------------------------------------------------|this
D|--5--3--5--2----7--5--7--3----9--7--9--5----5--3--5--2--------------|part
A|--------------------------------------------------------------------|twice
E|--------------------------------------------------------------------|


This is where the singing begins..
e|-------------------------------------------------------------------------|
B|-------------------------------------------------------------------------|
G|-------------------------------------------------------------------------|
D|-------------------------------------------------------------------------|
A|--5--5--3--5------5--7--7--5--7--7---------------------------------------|
E|--------------5----------------------------------------------------------|

e|-------------------------------------------------------------------------|
B|-------------------------------------------------------------------------|
G|-------------------------------------------------------------------------|
D|-------------------------------------------------------------------------|
A|--8--8--10--12--8--10---12--12--10--12--7--------------------------------|
E|-------------------------------------------------------------------------|

e|-------------------------------------------------------------------------|
B|-------------------------------------------------------------------------|
G|-------------------------------------------------------------------------|
D|-------------------------------------------------------------------------|
A|--12--12--10--12-17--12--14--14-12--10--10--12--8--10--7--5--------------|
E|-------------------------------------------------------------------------|

e|-------------------------------------------------------------------------|
B|-------------------------------------------------------------------------|
G|-------------------------------------------------------------------------|
D|-------------------------------------------------------------------------|
A|--4--3--5--7-------------------------------------------------------------|
E|--------------5--5-------------------------------------------------------|


| /  slide up
| \  slide down
| h  hammer-on
| p  pull-off
| ~  vibrato
| +  harmonic
| x  Mute note
============================================================================
Tap to rate this tab
 
# A B C D E F G H I J K L M N O P Q R S T U V W X Y Z