Song name
# A B C D E F G H I J K L M N O P Q R S T U V W X Y Z

Misc Computer Games - Zeldas Lullaby tab

-----------------------------------------------------------------------------
			     Zelda's Lullaby - Nintendo
-----------------------------------------------------------------------------
Tabbed by: Randy Lane
Email: randydlane156@gmail.com

Tuning: Drop D

Okay, this is one of my favorite video game songs of all time and every other tab I 
was either wrong or totally too complex...and wrong. So here's my version, simple to learn, 
to play. =D

This is what is first played in the song, its actually a base part, but i was too lazy 
write out the whole thing. DEAL WITH IT.

e|-----------------------------| x2
B|-----------------------------|
G|-----------------------------|
D|-----------2--------------4--|
A|-----------------------------|
E|-0----5---------0----7-------|

Actual melody starts here:

e|--------------------------------------------------------------------------|
B|--------------------------------------------------------------------------|
G|--------------------------------------------------------------------------|
D|-2----5----0-----------2----5----0----2----5----12----10----5----3p2----0-|
A|----------------3h5-------------------------------------------------------|
E|--------------------------------------------------------------------------|

e|--------------------------------------------------------------------------|
B|--------------------------------------------------------------------------|
G|--------------------------------------------------------------------------|
D|-2----5----0----3h5----2----5----0----2----5----12----10----17---(17)-----|
A|--------------------------------------------------------------------------|
E|--------------------------------------------------------------------------|

e|--------------------------------------------------------------------------|
B|--------------------------------------------------------------------------|
G|--------------------------------------------------------------------------|
D|-15p14h15p14----10----15----13p12h13p12----8---(8)----17----15p14h15p14---|
A|--------------------------------------------------------------------------|
E|--------------------------------------------------------------------------|

e|--------------------------------------------------------------------------|
B|--------------------------------------------------------------------------|
G|--------------17----------------------------------------------------------|
D|-10---(10)---------2----5----0-----------2----5----0----2----5----12----10|
A|----------------------------------3h5-------------------------------------|
E|--------------------------------------------------------------------------|

e|--------------------------------------------------------------------------|
B|--------------------------------------------------------------------------|
G|--------------------------------------------------------------------------|
D|-5----3p2----0----2----5----0----3h5----2----5----0----2----5----12----10-|
A|--------------------------------------------------------------------------|
E|--------------------------------------------------------------------------|

e|--------------------------------------------------------------------------|
B|--------------------------------------------------------------------------|
G|--------------------------------------------------------------------------|
D|-17----(17)----15p14h15p14----10----15----13p12h13p12----8---(8)----17----|
A|--------------------------------------------------------------------------|
E|--------------------------------------------------------------------------|

e|--------------------------------------------------------------------------|
B|--------------------------------------------------------------------------|
G|-----------------------------17-------------------------------------------|
D|-15p14h15p14----10---(10)-------------------------------------------------|
A|--------------------------------------------------------------------------|
E|--------------------------------------------------------------------------|

************************************

| /   slide up
| \   slide down
| h   hammer-on
| p   pull-off
| ~   vibrato
| +   harmonic
| x   Mute note
| b   Bend
| pb  Pre-bend
| br  Bend release
| pbr Pre-bend release
| brb Bend release bend

************************************
Tap to rate this tab
# A B C D E F G H I J K L M N O P Q R S T U V W X Y Z