Song name
# A B C D E F G H I J K L M N O P Q R S T U V W X Y Z

Misc Computer Games - Pokemon - Tin Tower Theme tab

                                                Pokemon
                                            TIN TOWER THEME	
                                        Gold - Silver - Crystal


NOTE: Both harmony and main melody have been included. Look
toward the bottom for the harmony. 


Main Melody

       Q     Q     E   E   E   E      Q     Q     Q     Q     
E||-------------------------------|--------13----------------|
B||---13----13----14--13------14--|--13----------14----------|
G||*----------------------15------|--------------------15----|
D||*------------------------------|--------------------------|
A||-------------------------------|--------------------------|
E||-------------------------------|--------------------------|


   Q     Q     E   E   E   E      Q     Q     H         
------------------------------|------------------------|
--13----13----14--13------14--|--13----------13--------|
----------------------15------|------------------------|
------------------------------|--------10--------------|
------------------------------|------------------------|
------------------------------|------------------------|


   Q     Q     E   E   E   E      Q     Q     Q     Q     
------------------------------|--------13----------------|
--13----13----14--13------14--|--13----------14----------|
----------------------15------|--------------------15----|
------------------------------|--------------------------|
------------------------------|--------------------------|
------------------------------|--------------------------|


   Q     Q     E   E   E   E      Q     Q     H         
------------------------------|------------------------|
--13----13----14--13------14--|--13----------13--------|
----------------------15------|------------------------|
------------------------------|------------------------|
------------------------------|--------15--------------|
------------------------------|------------------------|


   E  E   E  H        E      E  E   E  Q    E   Q     
-------------------------|---------------------------|
-------------------------|---------------------------|
-------------------------|---------------------------|
-------------------------|---------------------------|
--15-----15--------------|--15-----15----------15----|
-------------------------|---------------------------|


   E  E   E  Q    E   Q        E  E   E  Q    E   Q     
---------------------------|---------------------------|
---------------------------|---------------------------|
---------------------------|---------------------------|
---------------------------|---------------------13----|
--16-----16----------15----|--16-----16----------------|
---------------------------|---------------------------|


   Q     Q     E   E   E   E      Q     Q     H         
------------------------------|------------------------|
--------13--------------------|------------------------|
--12----------15--13--12--13--|--12----------12--------|
------------------------------|------------------------|
------------------------------|--------15--------------|
------------------------------|------------------------|


   Q     Q     E   E   E   E      Q     Q     H        
------------------------------|-------------------------||
--------13--------13--14------|--13----------13---------||
--12----------15----------15--|------------------------*||
------------------------------|------------------------*||
------------------------------|--------15---------------||
------------------------------|-------------------------||










Harmony

       Q     Q     H            Q     Q     E   E   E   E   
E||-------------------------|------------------------------|
B||-------------------------|------------------------------|
G||*--12----------13--------|--12--------------------------|
D||*--------10--------------|--------10--------10--11------|
A||-------------------------|--------------13----------13--|
E||-------------------------|------------------------------|


   Q     Q     Q     Q        Q     Q     Q.      E   
--------------------------|--------------------------|
--------------------------|----------------------11--|
--12----------13----10----|--12----------12----------|
--------10----------------|--------------------------|
--------------------------|--------10----------------|
--------------------------|--------------------------|


   E   E   E   E   H            Q     Q     E   E   E   E   
----------------------------|------------------------------|
----------------------------|--------13--------------------|
--12--10------12--13--------|--12----------13--12--10--13--|
----------11----------------|------------------------------|
----------------------------|------------------------------|
----------------------------|------------------------------|


   E   E   E   E   Q     Q        Q     Q     H         
------------------------------|------------------------|
------------------------------|------------------------|
--12----------12--13----10----|--12----------12--------|
------11----------------------|------------------------|
----------13------------------|--------10--------------|
------------------------------|------------------------|


   E  E   E  H        E      E  E   E  Q    E   Q     
-------------------------|---------------------------|
-------------------------|---------------------------|
-------------------------|---------------------------|
-------------------------|---------------------------|
--10-----10--------------|--10-----10----------10----|
-------------------------|---------------------------|


   E  E   E  Q    E   Q        E  E   E  Q    E   Q     
---------------------------|---------------------------|
---------------------------|---------------------------|
---------------------------|---------------------------|
---------------------------|---------------------------|
--11-----11----------10----|--11-----11----------13----|
---------------------------|---------------------------|


   E  E   E  H        E      E  E   E  H        E      E  E   E  H        E   
-------------------------|-------------------------|-------------------------|
-------------------------|-------------------------|-------------------------|
-------------------------|-------------------------|-------------------------|
-------------------------|-------------------------|-------------------------|
--10-----10--------------|--10-----10--------------|--10-----10--------------|
-------------------------|-------------------------|-------------------------|


   E  E   E  H        E   
--------------------------||
--------------------------||
-------------------------*||
-------------------------*||
--10-----10---------------||
--------------------------||




Duration Legend
---------------
W - whole
H - half
Q - quarter
E - 8th
S - 16th
T - 32nd
X - 64th
. - note dotted
|-n-|  - n-tuplets


Tablature Legend
----------------
L - tied note
x - dead note
g - grace note
(n) - ghost note
> - accentuded note
NH - natural harmonic
AH - artificial harmonic
TH - tapped harmonic
SH - semi harmonic
PH - pitch harmonic
h - hammer on
p - pull off
b - bend
br - bendRelease
pb - preBend
pbr - preBendRelease
brb - bendReleaseBend
\n/ - tremolo bar dip
\n - tremolo bar dive
-/n - tremolo bar Release up
/n\ - tremolo bar inverted dip
/n - tremolo bar return
-\n - tremolo bar Release down
S - shift slide
s - legato slide
/ -  slide into from below or out of upwards
\ -  slide into from above or out of downwards
~ - vibrato
W - wide vibrato
tr - trill
TP - tremolo picking
T - tapping
S - slap
P - pop
< - fade in
^ - brush up
v - brush down
Tap to rate this tab
# A B C D E F G H I J K L M N O P Q R S T U V W X Y Z