Song name
# A B C D E F G H I J K L M N O P Q R S T U V W X Y Z

Misc Computer Games - Legend Of Zelda - Bolero Of Fire tab

-----------------------------------------------------------------------------
			   Bolero of Fire - Nintendo
-----------------------------------------------------------------------------
Tabbed by: Randy Lane
Email: randydlane156@gmail.com

Tuning: Standard

This is a fun little song from The Legend of Zelda: Ocarina of Time. I actually had a 
of trouble tabbing out the ending to this song. Any way I am 100% sure on everything but 
the last few notes. Have fun.

e|------------------------------------------1---------1------------|
B|-----------------------------------------------3---------3-------|
G|----------------------2---------2--------------------------------|
D|--3---------3--------------3---------3---------------------------|
A|-------5---------5-----------------------------------------------|
E|-----------------------------------------------------------------|

e|--5---------5----------------------------------------------------|
B|-------6---------6-----------------------------------------------|
G|----------------------0---------0---------4---------4------------|
D|---------------------------2---------2---------5---------5-------|
A|-----------------------------------------------------------------|
E|-----------------------------------------------------------------|

e|------------------------------------------1---------1------------|
B|----------------------3---------3--------------3---------3-------|
G|--2---------2--------------2---------2---------------------------|
D|-------2---------2-----------------------------------------------|
A|-----------------------------------------------------------------|
E|-----------------------------------------------------------------|

e|--5---------5---------3---------3--------------------------------|
B|-------5---------5---------1---------1---------------------------|
G|------------------------------------------2----------------------|
D|------------------------------------------2----0----3----2----0--|
A|-----------------------------------------------------------------|
E|-----------------------------------------------------------------|

************************************

| /   slide up
| \   slide down
| h   hammer-on
| p   pull-off
| ~   vibrato
| +   harmonic
| x   Mute note
| b   Bend
| pb  Pre-bend
| br  Bend release
| pbr Pre-bend release
| brb Bend release bend

************************************
Tap to rate this tab
 
# A B C D E F G H I J K L M N O P Q R S T U V W X Y Z