Song name
# A B C D E F G H I J K L M N O P Q R S T U V W X Y Z

Misc Computer Games - A Kingdom For Keflings Theme tab

A Kingdom for Keflings Theme
This was tabbed by my cousin Alex Rogers so he gets 100% credit

e|-----------------------------| repeat throughout song
B|-----------------------------|
G|-----------------------------|
D|------------------------5----|
A|--------5--3-3---3-5/7-------|
E|3---5/7----------------------|

e|-----3-------------3------------| something like this
B|---------0---0---------0---0----|
G|-----------0-------------0------|
D|--------------------------------|
A|--------------3-----------------|
E|3-------------------------------|

e|7---8-10-12--10--8--7-------------7-----------------------------|
B|-----------------------10---8-----------------------------------|
G|------------------------------7-------------------------------7-|
D|----------------------------------------------------------------|
A|----------------------------------------------------------------|
E|----------------------------------------------------------------|

7---8-10-12--10--8--7------------------------------------------|
----------------------8h10h11p10-8-----------------------------|
--------------------------------------------------------------7|
---------------------------------------------------------------|
---------------------------------------------------------------|
---------------------------------------------------------------| repeat
Harmony
e|---------------------------------------------------------------|
B|8--10-12-13--12--10--8------------8----------------------------|
G|------------------------9--7-----------------------------------|
D|-----------------------------9---------------------------------|
A|---------------------------------------------------------------|
E|---------------------------------------------------------------|

---------------------------------------------------------------|
8--10-12-13--12--10-8------------------------------------------|
-----------------------7h9h10p9-7------------------------------|
---------------------------------------------------------------|
---------------------------------------------------------------|
---------------------------------------------------------------|
Tap to rate this tab
 
# A B C D E F G H I J K L M N O P Q R S T U V W X Y Z