Song name
# A B C D E F G H I J K L M N O P Q R S T U V W X Y Z

Misc Computer Games - Super Mario Brothers Theme tab

I will write out all three parts, 2 for guitar and one for bass.
On the guitar line, the notes in parenthesis  i.e.(4-5--2 )  are played by the 2nd 
guitar and are harmonies. The last 3 lines I wrote the 2 guitar parts on different lines.
The note in between asterisks *5* can be played by both guitars
I'll try to show the timing and I'll put in bar lines, but you'll have to figure 
out the rest by yourself.
Please comment.

Legend:
||•-----•||  repeat the phrases in between
/ slide up
\ slid down
~ vibrato (optional)

Key: Cmajor

Guitar 1 and 2
e|--------------3---------||------------------------------|-------3-5----3-----------||
B|-5-5--5----5------------||------------------------------|-----5------6----5----3---||
G|---------5---(4)--------||•-5---------------2---4---3-2-|------(4-5--2-4--2)-5---4•||
D|(4-4--4--4-4)-----*5*---||•(2)-----5----2---------------|-5--(5)------------(2-3)-•||
A|------------------------||--------(3)------(3---5---4-3)|(3)--------------------(5)||
E|------------------------||-------------(3)--------------|--------------------------||

Bass
G|-------------12---------||------------------------------|-------9-10-7-9-----------||
D|-0-0--0--0-0------------||•-----------------------------|----10----------10--7-9--•||
A|------------------10----||•10------7--------8--10---9-8-|-7---------------------10•||
E|------------------------||--------------8---------------|--------------------------||

e||---3-2-1---------------------|--3-2-1-------/8--8-8----|
B||--(5-4-3)4--5------1-----1-3-|-(5-4-3)4--5-(/6--6-6)---|
G||•-------(4--5)-1-2-----2-----|-------(4--5)------------|
D||•-------------(2-3-5)---(2-3)|-------------------------|
A||----------------------(3)----|-------------------------|
E||-----------------------------|-------------------------|

G||----------5--------5-5-5-----|-----------5-/12-1212----|
D||•----5--------3----------3---|----2----5---------------|
A||•3---------------------------|3---------------------10-|
E||-----------------------------|-------------------------|

e|--3-2-1---------------------|---------------------||
B|-(5-4-3)4--5------1-----1-3-|--4---3---1~---------||
G|-------(4--5)-1-2-----2-----|-(1)----------------•||
D|-------------(2-3-5)---(2-3)|-----(3---2~)-------•||
A|---------------------(3)----|---------------------||
E|----------------------------|---------------------||

G|---------5--------5-5-5-----|------3---5----------|| 
D|----5--------3----------3---|--6----------5-5----•|| 
A|3---------------------------|3-----------------3-•||
E|----------------------------|---------------------||

e|--------------------------|--------------------------|
B|-1-1--1--1-3--5-----------|-1-1--1--1-3-5------------|
G|(1-1--1--1-3)---5--2------|(1-1--1--1-3-0)-----------|
D|-------------(5-2--2)5----|--------------------------|
A|--------------------(3)---|--------------------------|
E|--------------------------|--------------------------|

G|--------------------------|--------------------------| 
D|-----------6--5-----------|-----------6--5-----------| 
A|------6------------3------|------6------------3------|
E|-4----------------------3-|-4----------------------3-|

e|--------------------------|--------------3---------||-------------------------|
B|-1-1--1--1-3--5-----------|-5-5--5----5------------||-------------------------|
G|(1-1--1--1-3)---5--2------|---------5---(4)--------||•-5-----------2--4--3-2--|
D|-------------(5-2--2)5----|(4-4--4--4-4)-----*5*---||•(2)--5---2--------------|
A|--------------------(3)---|------------------------||-----(3)-----(3--5--4-3)-|
E|--------------------------|------------------------||---------(3)-------------|

G|--------------------------|-------------12---------||-------------------------|
D|-----------6--5-----------|-0-0--0--0-0------------||•------------------------|
A|------6------------3------|------------------10----||•10---7-------8-10--9-8--|
E|-4----------------------3-|------------------------||----------8--------------|

e|-------3-5----3-------------||
B|-----5------6----5----3-----||
G|------(4-5--2-4--2)-5---4--•||
D|-5--(5)------------(2-3-0)-•||
A|(3)-------------------------||
E|----------------------------||

G|-------9-10-7-9-------------|| 
D|----10----------10--7-9----•||
A|-7---------------------10--•||
E|----------------------------||

Guitar 1 (Melody)
e||-------------------------|----5-5-5--3-----------------|-------------------------|
B||-5-------------6--6------|-------------6-5-------------|-5-------------6--6------|
G||•--5---------------------|-4---------------5--2--------|---5---------------------|
D||•-----5---6--7------7----|----------------------5------|------5---6--7------7----|
A||-------------------------|-----------------------------|-------------------------|
E||-------------------------|-----------------------------|-------------------------|

Guitar 2 (harmony)
e||-------------------------|-----------------------------|-------------------------|
B||-1-----------------------|----6-6-6--5-3---------------|-1-----------------------|
G||•--2-----------5--5------|---------------5-2-----------|---2-----------5--5------|
D||•-----2---2--3------3----|-5------------------3-2------|------2---2--3------3----|
A||-------------------------|-----------------------------|-------------------------|
E||-------------------------|-----------------------------|-------------------------|

Bass
G||-------------------------|-----------------------------|-------------------------| 
D||•---------10-------10-10-|-----------9----------1010---|----------10-------10-10-| 
A||•-----910----8--8-------8|-----8-10-----10--10------10-|------910----8--8-------8|
E||-8-----------------------|-10--------------------------|-8-----------------------|

G. 1
e|---------------------------||--------------------------|----------------------|
B|---6--6-6--5-3-------------||-----------3--5-----------|-----------3-5--------|
G|-4-------------5----------•||-5-5--5--5------5--2------|-5-5--5--5------------|
D|----------------*2--2*----•||---------------------5----|----------------------|
A|---------------------*3*---||--------------------------|----------------------|
E|---------------------------||--------------------------|----------------------|

G. 2
e|---------------------------||--------------------------|-------------------------|
B|---------------------------||--------------------------|-------------------------|
G|---7--7-7--5-4------------•||-1-1--1--1-3--------------|-1-1--1--1-3-------------|
D|-5-------------5-2--2-----•||--------------5-2--2------|-------------5-----------|
A|----------------------3----||---------------------3----|-------------------------|
E|---------------------------||--------------------------|-------------------------|

Bass
G|-------------4-5-----------||--------------------------|-------------------------| 
D|-5----5-5--7------5-------•||-----------6--5-----------|-----------6--5----------| 
A|----------------------3---•||------6------------3------|------6------------3-----|
E|---------------------------||-4----------------------3-|-4---------------------3-|

G. 1
e|--------------------------|--------------3----------|-------------------------|
B|-----------3--5-----------|-5-5--5----5-------------|-5-------------6--6------|
G|-5-5--5--5------5--2------|---------5---------------|---5---------------------|
D|---------------------5----|------------------*5*----|------5---6--7------7----|
A|--------------------------|-------------------------|-------------------------|
E|--------------------------|-------------------------|-------------------------|

G. 2
e|--------------------------|-------------------------|-------------------------|
B|--------------------------|-------------------------|-1-----------------------|
G|-1-1--1--1-3--------------|--------------4----------|---2-----------5--5------|
D|--------------5-2--2------|-4-4--4--4-4-------5-----|------2---2--3------3----|
A|---------------------3----|-------------------------|-------------------------|
E|--------------------------|-------------------------|-------------------------|

Bass
G|--------------------------|-------------12----------|-------------------------| 
D|-----------6--5-----------|-0-0--0--0-0-------------|----------10-------10-10-| 
A|------6------------3------|------------------10-----|------910----8--8-------8|
E|-4----------------------3-|-------------------------|-8-----------------------|

G. 1
e|----5-5-5--3-----------------|-------------------------|--------------------------||
B|-------------6-5-------------|-5-------------6--6------|---6--6-6--5-3------------||
G|-4---------------5--2--------|---5---------------------|-4-------------5----------||
D|----------------------5------|------5---6--7------7----|----------------*2--2*----||
A|-----------------------------|-------------------------|---------------------*3~*-||
E|-----------------------------|-------------------------|--------------------------||

G. 2
e|-----------------------------|-------------------------|--------------------------||
B|----6-6-6--5-3---------------|-1-----------------------|--------------------------||
G|---------------5-2-----------|---2-----------5--5------|---7--7-7--5-4------------||
D|-5------------------3-2------|------2---2--3------3----|-5-------------5-2--2-----||
A|-----------------------------|-------------------------|----------------------3~--||
E|-----------------------------|-------------------------|--------------------------||

Bass
G|-----------------------------|-------------------------|-------------4-5----------|| 
D|-----------9----------1010---|----------10-------10-10-|-5----5-5--7------5-------|| 
A|-----8-10-----10--10------10-|------910----8--8-------8|----------------------3~--||
E|-10--------------------------|-8-----------------------|--------------------------||
Tap to rate this tab
# A B C D E F G H I J K L M N O P Q R S T U V W X Y Z