Song name
# A B C D E F G H I J K L M N O P Q R S T U V W X Y Z

Misc Computer Games - Legend Of Zelda - Kepora Geboras Theme tab

Composed by Koji Kondo

From the Legend of Zelda: Ocarina of Time

Kepora Gebora's Theme

e|------------|
B|------------|
G|-7---5-5--7-|
D|------------|
A|-5---3-3--5-|
E|------------|



e|-----------------------|
B|-----------------------|
G|-------------------0---|
D|-------------0-1-3-----|
A|-3--2-3--2-3---------3-|
E|-----------------------|

e|-------------------------|
B|---1---------------------|
G|-0----3-1-0--------------|
D|------------3-1--0-------|
A|-------------------3-2---|
E|-----------------------3-|

e|-----------------------|
B|-----------------------|
G|-------------------0---|
D|-------------0-1-3-----|
A|-3--2-3--2-3---------3-|
E|-----------------------|

e|--------------------|
B|--------------------|
G|---1-0--------------|
D|-3-----3-1-0-0------|
A|----------------3-3-|
E|--------------------|

Play the parts above twice

e|-6--3-4-6--3-4-6--11-10-8--6-8--4-6-4--3-4-|
B|-------------------------------------------|
G|-------------------------------------------|
D|-------------------------------------------|
A|-------------------------------------------|
E|-------------------------------------------|

e|------------------10-8-6--4--4-6-4-3--1-3-|
B|-6--3-4-6--3-4-6--------------------------|
G|------------------------------------------|
D|------------------------------------------|
A|------------------------------------------|
E|------------------------------------------|

e|-6--3-4-6--3-4-6--11-10-8--6-8--4-6-4--3-4-|
B|-------------------------------------------|
G|-------------------------------------------|
D|-------------------------------------------|
A|-------------------------------------------|
E|-------------------------------------------|

e|------------------10-8-6--4-3--1----------|
B|-6--3-4-6--3-4-6-----------------4-3--4-4-|
G|------------------------------------------|
D|------------------------------------------|
A|------------------------------------------|
E|------------------------------------------|

Enjoy

Tabbed by Thomas Rasmussen
Tap to rate this tab
# A B C D E F G H I J K L M N O P Q R S T U V W X Y Z