Song name
# A B C D E F G H I J K L M N O P Q R S T U V W X Y Z

Misc Computer Games - Digital Devil Saga - Hunting tab

I believe this is a fairly accurate tab of the standard battle 
theme from Atlus' Shin Megami Tensei: Digital Devil Saga for 
the Playstation 2.  This is a great theme, and yet I've never
been able to find a decent tab of it anywhere online, so here
it is!  Also, this is my first tab so be nice, although I
think you'll like it!  Also, I didn't bother with the first 
part of the song since it doesn't interest me.  Perhaps I'll 
figure it out later if I get around to it.

-----------------------------------------------------------------
HUNTING - Shoji Meguro
-----------------------------------------------------------------
Tabbed by: Mister Big

Tuning: Standard E (EADGBe)

0:34

e|---------------------------------------------------------------|
B|---------------------------------------------------------------|
G|-----9b11--9----7-9-----------------6b7------------------------|
D|--------------------7~-----------------------------------------|
A|--------------------------10-9-10---------7~-------------------|
E|---------------------------------------------------------------|

0:42

e|---------------------------------------------------------------|
B|---------------------------------------------------------------|
G|-----9b11--9----7-9--------------------------------------------|
D|--------------------7~-----------------------------------------|
A|--------------------------10-9-10p9p7---------------9--7--9--10|
E|---------------------------------------------------------------|

0:51

e|---------------------------------------------------------------|
B|------------------------------7-8-7----------------------------|
G|--------------------7-------7-------7--------------------------|
D|----------9----7--9----7--9-----------9------------------------|
A|-7--9--10---10---------------------------10-12-10h12p10-9------|
E|---------------------------------------------------------------|

0:59

e|---------------------------------------------------------------|
B|----------------------------------------7-8-7---10s12~~--------|
G|------------------------------7-------7-------7----------------|
D|--------------------9----7--9----7--9--------------------------|
A|-7--9--10--7--9--10---10---------------------------------------|
E|---------------------------------------------------------------|

1:05

e|---------------------------------------------------------------|
B|---------------------------------------------------------------|
G|-12-14-12-14p12p11-11------------------------------------------|
D|---------------------------------------------------------------|
A|---------------------------------------------------------------|
E|---------------------------------------------------------------|

1:07

START SOLO

e|---------------------------------------------------------------|
B|---------------------------------------------------------------|
G|--14b16------------14~~------12h14p12-11-12-12s14-11-----------|
D|-----------------------------------------------------12-12~~~~-|
A|---------------------------------------------------------------|
E|---------------------------------------------------------------|

1:15 

e|-------------------------------14-14s15-14---------------------|
B|------------------s12~~--12-15------------15-12-12-----s12~~---|
G|------s11~~--11-12---------------------------------s14---------|
D|----12---------------------------------------------------------|
A|-14------------------------------------------------------------|
E|---------------------------------------------------------------|

1:23 

e|---------------------------------------------------------------|
B|---------------------------------------------------------------|
G|-s12-14-11~~---------------------------------------------------|
D|---------------------------------------------------------------|
A|---------------------------------------------------------------|
E|---------------------------------------------------------------|

END SOLO

1:25 (NOTE: riff starts at the same time as the last note of the solo)

e|---------------------------------------------------------------|
B|---------------------------------------------------------------|
G|---------------------------------------------------------------|
D|-2-----x----2-----x----2----x----2-----x----2----x----2----x---|
A|-2-----x----2-----x----2----x----2-----x----2----x----2----x---|
E|-0-----x----0-----x----0----x----0-----x----0----x----0----x---|

e|---------------------------------------------------------------|
B|---------------------------------------------------------------|
G|---------------------------------------------------------------|
D|-5-----x----5-----x----5s7-------7-----x----7----x----7----x---|
A|-5-----x----5-----x----5s7-------7-----x----7----x----7----x---|
E|-3-----x----3-----x----3s5-------5-----x----5----x----5----x---|

1:33

e|---------------------------------------------------------------|
B|---------------------------------------------------------------|
G|---------------------------------------------------------------|
D|-2-----x----2-----x----2----x----2-----x----2----x----2----x---|
A|-2-----x----2-----x----2----x----2-----x----2----x----2----x---|
E|-0-----x----0-----x----0----x----0-----x----0----x----0----x---|

e|---------------------------------------------------------------|
B|---------------------------------------------------------------|
G|---------------------------------------------------------------|
D|-5-----x----5-----x----5s7-------7-----x----7----x----7----x---|
A|-5-----x----5-----x----5s7-------7-----x----7----x----7----x---|
E|-3-----x----3-----x----3s5-------5-----x----5----x----5----x---|

1:41

e|---------------------------------------------------------------|
B|---------------------------------------------------------------|
G|-----9b11--9----7-9-----------------6b7------------------------|
D|--------------------7~-----------------------------------------|
A|--------------------------10-9-10---------7~-------------------|
E|---------------------------------------------------------------|

1:50

e|---------------------------------------------------------------|
B|---------------------------------------------------------------|
G|-----9b11--9----7-9--------------------------------------------|
D|--------------------7~-----------------------------------------|
A|--------------------------10-9-10p9p7---------------9--7--9--10|
E|---------------------------------------------------------------|

1:59

e|---------------------------------------------------------------|
B|------------------------------7-8-7----------------------------|
G|--------------------7-------7-------7--------------------------|
D|----------9----7--9----7--9-----------9------------------------|
A|-7--9--10---10---------------------------10-12-10h12p10-9------|
E|---------------------------------------------------------------|

2:07

e|---------------------------------------------------------------|
B|----------------------------------------7-8-7---10s12~~--------|
G|------------------------------7-------7-------7----------------|
D|--------------------9----7--9----7--9--------------------------|
A|-7--9--10--7--9--10---10---------------------------------------|
E|---------------------------------------------------------------|

2:13

e|---------------------------------------------------------------|
B|---------------------------------------------------------------|
G|-12-14-12-14p12p11-11------------------------------------------|
D|---------------------------------------------------------------|
A|---------------------------------------------------------------|
E|---------------------------------------------------------------|

(SONG FADES OUT)



| S  slide
| h  hammer-on
| p  pull-off
| ~  vibrato
| +  harmonic
| x  Mute note
Tap to rate this tab
# A B C D E F G H I J K L M N O P Q R S T U V W X Y Z