Song name
# A B C D E F G H I J K L M N O P Q R S T U V W X Y Z

Misc Computer Games - Metal Gear Solid 4 - Victory Song tab

-------------------------------------------------------------------------------
	             Metal Gear Solid 4 - Victory Song
-------------------------------------------------------------------------------
Tabbed By: Tim Nguyen
Email: outerheaven2005@hotmail.com

Tuning: Standard

The song Sunny hums, and the resistance member whistles.  Got a few requests to do this 
so here it is.

E|------------------------8-7~---------------------------------------|
B|---------------------10---------10-8-10~---8-----------------------|
G|---------------------------------------------10-9~-----7~----------|
D|---------9-7~----7-9--------------------------------10-----7-9~----|
A|---7-10~------10---------------------------------------------------|
E|-------------------------------------------------------------------|

E|------------------------8-7~---------------------------------------|
B|---------------------10---------10-8-10~---8-----------------------|
G|---------------------------------------------10-9~-----7~----------|
D|---------9-7~----7-9--------------------------------10----9-10-7~--|
A|---7-10~------10---------------------------------------------------|
E|-------------------------------------------------------------------|
Tap to rate this tab
 
# A B C D E F G H I J K L M N O P Q R S T U V W X Y Z