Song name
# A B C D E F G H I J K L M N O P Q R S T U V W X Y Z

Misc Computer Games - Doom - E3m8 tab

Track 1
     E     W                   W                   W                 
E||-----|-------------------|-------------------|-------------------|
B||-----|-------------------|-------------------|-------------------|
G||-----|-------------------|-------------------|-------------------|
D||--0--|--L----------------|--L----------------|--L----------------|
A||--0--|--L----------------|--L----------------|--L----------------|
D||-----|-------------------|-------------------|-------------------|


  W                   S S S S S S S S S S S S E  E   
-------------------|--------------------------------|
-------------------|--------------------------------|
-------------------|--------------------------------|
--L----------------|--------------------------------|
--L----------------|--0-3-0-3-0-3-0-3-0-3-0-3-6--5--|
-------------------|--0-3-0-3-0-3-0-3-0-3-0-3-6--5--|


  S S S S S S S S S S S S E  E     S S S S S S S S S S S S E  E   
--------------------------------|--------------------------------|
--------------------------------|--------------------------------|
--------------------------------|--------------------------------|
--------------------------------|--------------------------------|
--0-3-0-3-0-3-0-3-0-3-0-3-6--5--|--0-3-0-3-0-3-0-3-0-3-0-3-6--5--|
--0-3-0-3-0-3-0-3-0-3-0-3-6--5--|--0-3-0-3-0-3-0-3-0-3-0-3-6--5--|


  S S S S S S S S S S S S E  E     S S S S S S S S S S S S E  E   
--------------------------------|--------------------------------|
--------------------------------|--------------------------------|
--------------------------------|--------------------------------|
--------------------------------|--------------------------------|
--0-3-0-3-0-3-0-3-0-3-0-3-6--5--|--0-3-0-3-0-3-0-3-0-3-0-3-6--5--|
--0-3-0-3-0-3-0-3-0-3-0-3-6--5--|--0-3-0-3-0-3-0-3-0-3-0-3-6--5--|


  S S S S S S S S S S S S E  E     S S S S S S S S S S S S E  E   
--------------------------------|--------------------------------|
--------------------------------|--------------------------------|
--------------------------------|--------------------------------|
--------------------------------|--------------------------------|
--0-3-0-3-0-3-0-3-0-3-0-3-6--5--|--0-3-0-3-0-3-0-3-0-3-0-3-6--5--|
--0-3-0-3-0-3-0-3-0-3-0-3-6--5--|--0-3-0-3-0-3-0-3-0-3-0-3-6--5--|


  S S S S S S S S S S S S E  E     S S S S S S S S S S S S  E   E   
--------------------------------|----------------------------------|
--------------------------------|----------------------------------|
--------------------------------|----------------------------------|
--------------------------------|----------------------------------|
--0-3-0-3-0-3-0-3-0-3-0-3-6--5--|--5-8-5-8-5-8-5-8-5-8-5-8-11--10--|
--0-3-0-3-0-3-0-3-0-3-0-3-6--5--|--5-8-5-8-5-8-5-8-5-8-5-8-11--10--|


  S S S S S S S S S S S S  E   E     S S S S S S S S S S S S  E   E   
----------------------------------|----------------------------------|
----------------------------------|----------------------------------|
----------------------------------|----------------------------------|
----------------------------------|----------------------------------|
--5-8-5-8-5-8-5-8-5-8-5-8-11--10--|--5-8-5-8-5-8-5-8-5-8-5-8-11--10--|
--5-8-5-8-5-8-5-8-5-8-5-8-11--10--|--5-8-5-8-5-8-5-8-5-8-5-8-11--10--|


  S S S S S S S S S S S S E  E     S S S S S S S S S S S S E  E   
--------------------------------|--------------------------------|
--------------------------------|--------------------------------|
--------------------------------|--------------------------------|
--------------------------------|--------------------------------|
--5-8-5-8-5-8-5-8-5-8-5-8-5--7--|--0-3-0-3-0-3-0-3-0-3-0-3-6--5--|
--5-8-5-8-5-8-5-8-5-8-5-8-5--7--|--0-3-0-3-0-3-0-3-0-3-0-3-6--5--|


  S S S S S S S S S S S S E  E     S S S S S S S S S S S S E  E   
--------------------------------|--------------------------------|
--------------------------------|--------------------------------|
--------------------------------|--------------------------------|
--------------------------------|--------------------------------|
--0-3-0-3-0-3-0-3-0-3-0-3-6--5--|--0-3-0-3-0-3-0-3-0-3-0-3-6--5--|
--0-3-0-3-0-3-0-3-0-3-0-3-6--5--|--0-3-0-3-0-3-0-3-0-3-0-3-6--5--|


  S S S S S S S S S S S S E  E     S S S S E  E  S S S S E  E   
--------------------------------|------------------------------|
--------------------------------|------------------------------|
--------------------------------|------------------------------|
--------------------------------|------------------------------|
--0-3-0-3-0-3-0-3-0-3-0-3-6--5--|--5-3-5-3-5--0--0-3-0-3-0--3--|
--0-3-0-3-0-3-0-3-0-3-0-3-6--5--|--5-3-5-3-5--0--0-3-0-3-0--5--|


  S S S S E  E  S S S S E  E     S S S S E  E  S S S S E  E   
------------------------------|------------------------------|
------------------------------|------------------------------|
------------------------------|------------------------------|
------------------------------|------------------------------|
--5-3-5-3-5--0--0-3-0-3-0--3--|--3-1-3-1-3--0--0-3-0-3-0--5--|
--5-3-5-3-5--0--0-3-0-3-0--5--|--3-1-3-1-3--0--0-3-0-3-0--5--|


  S S S S E  E  S S S S E  E     W                   W                 
------------------------------|-------------------|-------------------|
------------------------------|-------------------|-------------------|
------------------------------|-------------------|-------------------|
---------------------------0--|--L----------------|--L----------------|
--4-3-2-1-0--7--6-5-4-3-2--0--|--L----------------|--L----------------|
--4-3-2-1-0--7--6-5-4-3-2-----|-------------------|-------------------|


  W                   W                  
-------------------|-------------------||
-------------------|-------------------||
-------------------|-------------------||
--L----------------|--L----------------||
--L----------------|--L----------------||
-------------------|-------------------||




Duration Legend
---------------
W - whole
H - half
Q - quarter
E - 8th
S - 16th
T - 32nd
X - 64th
. - note dotted
|-n-|  - n-tuplets


Tablature Legend
----------------
L - tied note
x - dead note
g - grace note
(n) - ghost note
> - accentuded note
NH - natural harmonic
AH - artificial harmonic
TH - tapped harmonic
SH - semi harmonic
PH - pitch harmonic
h - hammer on
p - pull off
b - bend
br - bendRelease
pb - preBend
pbr - preBendRelease
brb - bendReleaseBend
\n/ - tremolo bar dip
\n - tremolo bar dive
-/n - tremolo bar Release up
/n\ - tremolo bar inverted dip
/n - tremolo bar return
-\n - tremolo bar Release down
S - shift slide
s - legato slide
/ -  slide into from below or out of upwards
\ -  slide into from above or out of downwards
~ - vibrato
W - wide vibrato
tr - trill
TP - tremolo picking
T - tapping
S - slap
P - pop
< - fade in
^ - brush up
v - brush down
Tap to rate this tab
# A B C D E F G H I J K L M N O P Q R S T U V W X Y Z