Song name
# A B C D E F G H I J K L M N O P Q R S T U V W X Y Z

Misc Computer Games - World Of Warcraft - Alliance Tavern Ambient tab

-------------------------------------------------------------------------------
		Tavern Music - World of Warcraft by Blizzard Entertainment
-------------------------------------------------------------------------------
Tabbed by: Jeff Maginniss
Email: peridot203@gmail.com

Tuning: Standard E-A-D-G-B-e

Tempo: Brisk folk style playing, 3/4 timing (count 1,2,3 2,2,3, 3,2,3 4,2,3)

Performance notes: Play with fingers and thumb only, do not use a pick.
Sound should be almost dull and muted, no bright notes, as this music would
have been originally performed on a nylon stringed classical guitar.


============= Simplified Version (suggest fingerpicking):

Time-1-2-3- -2-2-3- -3-2-3- -4-2-3-| -1-2-3- -2-2-3- -3-2-3- -4-2-3-  
             ^       ^       ^                ^       ^    ^
e|---------------------------------|---------------------------------|
B|----------------7--8h10-8--7-----|--------------7------------------|
G|-----9-9p7-9--9-------------9p7~~|----9-9p7-9-----9-7--------------|
D|--/9-----------------------------|-/9-----------------9---9\7------|
A|---------------------------------|----------------------10---------|
E|---------------------------------|---------------------------------|

Time-1-2-3- -2-2-3- -3-2-3- -4-2-3-| -1-2-3- -2-2-3- -3-2-3- -4-2-3-  
             ^       ^       ^        ^       ^               ^
e|---------------------------------|---------------------------------|
B|----------------7--8h10-8--7-----|--8---8--10\8-7------------------|
G|-----9-9p7-9--9-------------9p7~~|----9---------------9-9p7-9~~~~~~|
D|--/9-----------------------------|-----------------/9--------------|
A|---------------------------------|---------------------------------|
E|---------------------------------|---------------------------------|

Time-1-2-3- -2-2-3- -3-2-3- -4-2-3-| -1-2-3- -2-2-3- -3-2-3- -4-2-3-  
     ^  **   ^       ^       ^        ^       ^       ^       ^
e|--10-1010-10p9-7-----------------|---------------------------------|
B|------------------10-8-7---------|----7h8---7h8-10--8p7-8----------|
G|---------------------------9~~~~~|--9-----------------------9~~~~~~|
D|---------------------------------|---------------------------------|
A|---------------------------------|---------------------------------|
E|---------------------------------|---------------------------------|

Time-1-2-3- -2-2-3- -3-2-3- -4-2-3-| -1-2-3- -2-2-3- -3-2-3- -4-2-3-  
     ^  **   ^       ^       ^        ^       ^       ^       ^
e|--10-1010-10p9-7-----------------|---------------------------------|
B|------------------10-8-7---------|----7h8---7----------------------|
G|--------------------------/9~~~~~|--9---------9-7-----9-9p7-9~~~~~~|
D|---------------------------------|-----------------/9--------------|
A|---------------------------------|---------------------------------|
E|---------------------------------|---------------------------------|


============= Advanced Fingerpicking:

Note: open strings (0) picked with thumb and let ring


Time-1-2-3- -2-2-3- -3-2-3- -4-2-3-| -1-2-3- -2-2-3- -3-2-3- -4-2-3-  
             ^       ^       ^                ^       ^    ^
e|---------------------------------|---------------------------------|
B|----------------7--8h10-8--7-----|--------------7------------------|
G|-----9-9p7-9--9-------------9p7~~|----9-9p7-9-----9-7--------------|
D|--/9---------------0-------------|-/9-----------------9---9-7------|
A|---------------------------0-----|----------0-----------10--0------|
E|---0-------0---------------------|--0---------------0--------------|

Time-1-2-3- -2-2-3- -3-2-3- -4-2-3-| -1-2-3- -2-2-3- -3-2-3- -4-2-3-  
             ^       ^       ^        ^       ^               ^
e|---------------------------------|---------------------------------|
B|----------------7--8h10-8--7-----|--8---8--10\8-7------------------|
G|-----9-9p7-9--9-------------9p7~~|----9---------------9-9p7-9~~~~~~|
D|--/9---------------0-------------|--0--------------/9--------------|
A|---------------------------0-----|----------0----------------------|
E|---0-------0---------------------|------------------0-------0------|

Time-1-2-3- -2-2-3- -3-2-3- -4-2-3-| -1-2-3- -2-2-3- -3-2-3- -4-2-3-  
     ^  **   ^       ^       ^        ^       ^       ^       ^
e|--10-1010-10p9-7-----------------|---------------------------------|
B|------------------10-8-7---------|----7h8---7h8-10--8p7-8----------|
G|---0-------0---------------9~~~~~|--9-----------------------9~~~~~~|
D|-------------------0-------------|----------0-------0--------------|
A|---------------------------------|--0-----------------------0------|
E|---------------------------0-----|---------------------------------|

Time-1-2-3- -2-2-3- -3-2-3- -4-2-3-| -1-2-3- -2-2-3- -3-2-3- -4-2-3-  
     ^  **   ^       ^       ^        ^       ^       ^       ^
e|--10-1010-10p9-7-----------------|---------------------------------|
B|------------------10-8-7---------|----7h8---7----------------------|
G|---0-------0--------------/9~~~~~|--9---------9-7-----9-9p7-9~~~~~~|
D|-------------------0-------------|----------0------/9--------------|
A|---------------------------------|--0------------------------------|
E|---------------------------0-----|------------------0-------0------|


| *  staccato
| /  slide up
| \  slide down
| ^  accent note
| h  hammer-on
| p  pull-off
| ~  vibrato
| +  harmonic
| x  Mute note
===============================================================================
Tap to rate this tab
# A B C D E F G H I J K L M N O P Q R S T U V W X Y Z