Song name
# A B C D E F G H I J K L M N O P Q R S T U V W X Y Z

Misc Computer Games - Metroid - Kraids Lair tab

--------------------------------------------------------------------------------------
                                METROID - KRAID'S LAIR
--------------------------------------------------------------------------------------

                               Tabbed by: SethMegadefan
                              Email: slilly08@winona.edu

Tuning: Standard

In 3/4 time

            Guitar 1
       | |------------------5-----------------|------------------------------------| |
       | |5-----------0-----------------------|7-----------3-----------------------| |
       |o|------------------------------5-----|------------------4-----------3-----|o|
       |o|------------------------------------|------------------------------------|o|
       | |------------------------------------|------------------------------------| |
 Play  | |------------------------------------|------------------------------------| |
  4    | |  Guitar 2                          |                                    | |
 Times | |------------------------------------|------------------------------------| |
       | |------------------------------------|------------------------------------| |
       |o|------9-----------------9-----------|------9-----------------9-----------|o|
       |o|------------------------------------|------------------------------------|o|
       | |7-----------------7-----------------|7-----------------7-----------------| |
       | |------------------------------------|------------------------------------| |



       | |3-----------------------------------|------------------5-----------0-----| |
       | |------------3-----5-----------------|7-----------3-----------------------| |
       |o|------------------------------4-----|------------------------------------|o|
       |o|------------------------------------|------------------------------------|o|
       | |------------------------------------|------------------------------------| |
 Play  | |------------------------------------|------------------------------------| |
  2    | |                                    |                                    | |
 Times | |------------------------------------|------------------------------------| |
       | |------------------------------------|------------------------------------| |
       |o|------5-----------------5-----------|------7-----------------7-----------|o|
       |o|------------------------------------|------------------------------------|o|
       | |3-----------------3-----------------|5-----------------5-----------------| |
       | |------------------------------------|------------------------------------| |



       | |3-----3-----3-----6-----6-----6-----|5-----5-----5-----5-----------7-----| |
       | |---5-----5-----5----7------7-----7--|---6-----6-----6-----4--7--4-----7--| |
       |o|------------------------------------|------------------------------------|o|
       |o|------------------------------------|------------------------------------|o|
       | |------------------------------------|------------------------------------| |
 Play  | |------------------------------------|------------------------------------| |
  4    | |                                    |                                    | |
 Times | |------------------------------------|------------------------------------| |
       | |------------------------------------|------------------------------------| |
       |o|------------9-----------------11----|------------10----------------------|o|
       |o|------9-----------------11----------|------10----------------------9-----|o|
       | |7-----------------9-----------------|8-----------------------9-----------| |
       | |------------------------------------|------------------7-----------------| |



       | |------------10----14-10-------------|17-14-------------------------12----| |
       | |------10-12----12-------10-------12-|------15-------------------15-------| |
       |o|11-12----------------------12-11----|---------14-12-11----12-14----------|o|
       |o|------------------------------------|------------------14----------------|o|
       | |------------------------------------|------------------------------------| |
 Play  | |------------------------------------|------------------------------------| |
  2    | |                                    |                                    | |
 Times | |------------------------------------|------------------------------------| |
       | |------------------------------------|------------------------------------| |
       |o|------------------------------------|------------------------------------|o|
       |o|------------9-----10----------9-----|------------------------------7-----|o|
       | |7-----------------------------------|------------9-----10----------------| |
       | |------------------------------------|7-----------------------------------| |


       | |17----15----14----12----14----15----|17----15----14----12----14----15----| |
       | |------------------------------------|------------------------------------| |
       |o|------------------------------------|------------------------------------|o|
       |o|------------------------------------|------------------------------------|o|
       | |------------------------------------|------------------------------------| |
 Play  | |------------------------------------|------------------------------------| |
  2    | |                                    |                                    | |
 Times | |------------------------------------|------------------------------------| |
       | |------------------------------------|------------------------------------| |
       |o|------------------------------------|------------------------------------|o|
       |o|------------------------------------|------------------------------------|o|
       | |------------------------------------|------------------------------------| |
       | |------------------------------------|------------------------------------| |



Repeat the whole thing as many times as you feel it necessary to rock out.

=============================================================================================
Tap to rate this tab
 
# A B C D E F G H I J K L M N O P Q R S T U V W X Y Z