Song name
# A B C D E F G H I J K L M N O P Q R S T U V W X Y Z

Misc Computer Games - Donkey Kong - Rivet Board tab

rivet board 


Donkey Kong - 1981


TRANSCRIBED BY RUDY GUZMAN


guzman_84@hotmail.com



level 2
  gt1                                             
e:-------------------------15-13-----------14----11-----------|
B:-10-11--13---15-13-15----------15--13-13----13----12--------|
G:-9--10--12------------14------------------------------------|
D:------------------------------------------------------------|
A:-----------------------------------------------------4-5--6-|
E:-----------------------------------------------------5-6--7-|

  gt2
e:------------------------------------------------------------|
B:------------------------------------------------------------|
G:------------------------------------------------------------|
D:---------------8----8-----6----6-------4--------------------|
A:-------------8----8-----6----6-----4-4----4-5--------4-5--6-|
E:-----------------------------------------------6-----5-6--7-|


level 3
   gt1
e:-14-14--13-13--12-12--11-11--10------10-------------12----14--14-15-14-13----13------|
B:-15-15--14-14--13-13--12-12--11----11----11-13----13---13-----------------15---------|
G:---------------------------------10-------------12-----------------------------------|
D:-------------------------------------------------------------------------------------|
A:---------------------------------------------------------------------------------4---|
E:-----------------------------------------------------------------------------------6-|

  gt1
e:-------------------------------------------------------------------------------------|
B:-------------------------------------------------------------------------------------|
G:-------------------------------------------------------------------------------------|
D:---------------------------------8-----8------10------10-----------------------------|
A:-----------------------------------8-----8-------10------10-----6----6-------8---4---|
E:-------------------------------------------------------------------6----6----------6-|

hillo son mex

26/02/10
Tap to rate this tab
# A B C D E F G H I J K L M N O P Q R S T U V W X Y Z