Song name
# A B C D E F G H I J K L M N O P Q R S T U V W X Y Z

Misc Computer Games - Earthbound Zero - Eight Melodies tab

-------------------------------------------------------------------------------
			    Earthbound Zero- Eight Melodies
-------------------------------------------------------------------------------
Tabbed by: panoramix125
Email: panoramix125@gmail.com

Tuning: standard (eBGDAE)


E||----------------------|----------------------|----------------------|
B||----------------------|----------------------|----------------------|
G||----------------------|----------------------|--7----6--------------|
D||-----------------7----|----------------------|------------9---------|
A||--5----7----9---------|--7-------------------|-----------------9----|
E||----------------------|----------------------|----------------------|


    
----------------------|----------------------|----------------------|
----------------------|----------------------|----------------------|
----------------------|-------6----7---------|----------------------|
--7-------------------|--9--------------7----|----------------------|
----------------------|----------------------|-------9--------------|
----------------------|----------------------|----------------------|


      
----------------------|----------------------|----------------------|
----------------------|----------------------|----------------------|
----------------------|----------------------|----------------------|
--5----4--------------|----------------------|----------------------|
------------5---------|----------------------|----------------------|
-----------------5----|----------------------|--7---------9---------|


      
----------------------|----------------------|-----------------------|
----------------------|----------------------|-----------------------|
----------------------|----------------------|-----------------------|
------------5---------|--4----5----7----4----|-----------------------|
--5-------------------|----------------------|--7----9----10----7----|
----------------------|----------------------|-----------------------|


       
-----------------------|----------------------|----------------------|
-----------------------|----------------------|----------------------|
-----------------------|----------------------|----------------------|
-----------------------|----------------------|----------------------|
-------10----9---------|--7-------------------|--5--------------7----|
--7---------------7----|------------9---------|------------5---------|


              
----------------------|-------||
----------------------|-------||
----------------------|-------||
----------------------|-------||
--5-------------------|-------||
----------------------|-------||


************************************
Tap to rate this tab
# A B C D E F G H I J K L M N O P Q R S T U V W X Y Z