Song name
# A B C D E F G H I J K L M N O P Q R S T U V W X Y Z

Misc Computer Games - Pac-man - Act 1 And Act 2 tab

act 1 and act 2 *arcade*


pac man


TRANSCRIBED BY RUDY GUZMAN


guzman_84@hotmail.com


e:----------------------------------------------------|
B:----------------------11----------------------------|
G:-11-11-11-------11-11------11-11-11--------11-11----|
D:----------13p11---------------------13p11--------13-|
A:----------------------------------------------------|
E:----------------------------------------------------|

e:--------------------------------------------------|
B:----------------------11-12-12h14-12-11----11-----|
G:-11-11-11-------11-11-------------------11-----11-|
D:----------13p11-----------------------------------|
A:--------------------------------------------------|
E:--------------------------------------------------|

                                              


hillo son mex

11/03/10
Tap to rate this tab
 
# A B C D E F G H I J K L M N O P Q R S T U V W X Y Z