Song name
# A B C D E F G H I J K L M N O P Q R S T U V W X Y Z

Misc Computer Games - Sims 3 - Skill Level 6 tab

E|-0---------------------|--0------------------------|
B|-----------------------|---------------------------|
G|---------2--2---------2|----------2--2-----------2-|
D|------2------------2---|-------2--------------2----|
A|---0------------0------|---------------------------|
E|-----------------------|-----1-------------1-------|

E|--1---------------------|-3------------6-----------|
B|------------------------|--------------------------|
G|------------2--0------2-|-----------2------------2-|
D|------0--3---------3----|--------2------------2----|
A|------------------------|-----0------------0-------|
E|------------------------|--------------------------|

E|-5----------------------|--5-----------------------|
B|-------------2----------|--------------------------|
G|------------------------|-------------2------------|
D|------0------0--0-----0-|--4-----4----------4------|
A|---0-----0---------0----|-----4-----4----4-----4---|
E|------------------------|--------------------------|

E|--2----------------------|-------------------------|
B|--------------0----------|--3----------------------|
G|-------------------------|-----------2-----------2-|
D|--------0--4--------0--4-|--------0-----0-----0----|
A|-------------------------|-----2-----------2-------|
E|-----3-----------3-------|-------------------------|

E|-0---------------------|--0------------------------|
B|-----------------------|---------------------------|
G|---------2--2---------2|----------2--2-----------2-|
D|------2------------2---|-------2--------------2----|
A|---0------------0------|---------------------------|
E|-----------------------|-----1-------------1-------|

E|--1---------------------|-3------------6-----------|
B|------------------------|--------------------------|
G|------------2--0------2-|-----------2--------------|
D|------0--3---------3----|--------2--------------7--|
A|------------------------|-----0---------------7----|
E|------------------------|-------------------5------|

E|-5----------------------|--5-----------------------|
B|-------------2----------|--------------------------|
G|------------------------|-------------2------------|
D|------0------0--0-----0-|--4-----4----------4------|
A|---0-----0---------0----|-----4-----4----4-----4---|
E|------------------------|--------------------------|

E|--2----------------------|-------------------------|
B|--------------0----------|--3----------------------|
G|-------------------------|-----------2-----------2-|
D|--------0--4--------0--4-|--------0-----0-----0----|
A|-------------------------|-----2-----------2-------|
E|-----3-----------3-------|-------------------------|

listen to this song and figure out the rhythm.
Tap to rate this tab
# A B C D E F G H I J K L M N O P Q R S T U V W X Y Z