Song name
# A B C D E F G H I J K L M N O P Q R S T U V W X Y Z

Misc Computer Games - Final Fantasy 13 - The Promise tab

The Promise - Composed by Masashi Hamauzu

I don't play piano, and it's difficult for me to hear the 
chords completely, so it's likely I made some mistakes. 
Please email me at paultewolde@yahoo.com or make a comment 
for any corrections.

All finger-picked

  0:00                          0:04
e|-19-20-19-17-15--------------|-15-13-12-10-12-------------|
B|-------------------13--------|----------------------------|
G|-----------------------------|----------------------------|
D|-17----------15--------------|-12-------------------------|
A|-----------------------------|-------------12-------------|
E|-----------------------------|----------------------------|
  0:07                          0:11
e|-------8-15------------------|-------8-15-----------------|
B|-10-12------15---------------|-10-12------15--------------|
G|------------------12---------|----------------------------|
D|-----------------------------|----------------------------|
A|-8---------------------------|-8--------------------------|
E|------------12---------------|------------12--------------|

Repeat once, but the second time on the 
fourth measure, only play this

e|----------------------------|
B|-10-------------------------|
G|----------------------------|
D|----------------------------|
A|-8--------------------------|
E|----------------------------|

If it's uncomfortable to play that high on the neck for you, 
or if you just prefer it lower for an acoustic sound, you could 
just play it an octave lower like this.

 0:00                          0:04
e|-7-8-7-5-3--------------|-3-1-0---0-------------|
B|--------------1---------|-------3---------------|
G|------------------------|-----------------------|
D|-5-------3--------------|-0---------------------|
A|------------------------|---------0-------------|
E|------------------------|-----------------------|
  0:07                          0:11
e|-------3----------------|-------3---------------|
B|-----1---3--------------|-----1---3-------------|
G|-2-4----------0---------|-2-4-------------------|
D|------------------------|-----------------------|
A|------------------------|-----------------------|
E|-1-------0--------------|-1-------0-------------|

Again, the second time on the fourth measure, only play

e|----------------------------|
B|----------------------------|
G|-2--------------------------|
D|----------------------------|
A|----------------------------|
E|-1--------------------------|
Tap to rate this tab
# A B C D E F G H I J K L M N O P Q R S T U V W X Y Z