Song name
# A B C D E F G H I J K L M N O P Q R S T U V W X Y Z

Misc Computer Games - Final Fantasy 13 - Somnus tab

Final Fantasy 13 Versus
Somnus
Standard Tuning
Arranged by: Mark Neil Mallare


E|-----------------------------------------------|--------------------------------------------|
B|--------------4--4--3--4-----6--8--------------|--------------7--4--4--3--4-----6--4-----8--|
G|--8--7--5--3--5-----4--------7-----8-----------|--8--8--7--8-----5-----4--------7-----8--7--|
D|--8--------------------------------8-----------|--8-----------------------------------8-----|
A|--6-----------3--------------------6-----------|--6--------------3--------------------6-----|
E|--8--6--------4-----3-----6--------8--6--4--6--|--8-----6--------4-----3-----8--------8--6--|

E|----------------------------------------8--|-----------------------------------|
B|--7----4--6--8-----------4--------6--8--9--|--8--8--6--------4-----4--3--4--3--|
G|-------5--------------5--------8-----------|-----------7--8--5--5-----4--------|
D|-------------------------------------------|-----------------------------------|
A|-------3-----------3-----------------------|-----------------3-----------------|
E|-------4--------4-----------6--------------|--------6--------4--------3--------|

E|-----------------|
B|-----------------|
G|--8--7--3--0--8--|
D|--8-----------8--|
A|--6-----------6--|
E|--8--6--------8--|

It's my firstime arranging a song. Please check and try it out. Email me for your 
and suggestions :D ty..godbless .

email: mallare.mark@gmail.com
Tap to rate this tab
# A B C D E F G H I J K L M N O P Q R S T U V W X Y Z