Song name
# A B C D E F G H I J K L M N O P Q R S T U V W X Y Z

Misc Computer Games - Megaman 3 - The Passing Of The Blue Crown tab

Megaman 3 The Passing of the Blue Crown (Guitar C0v3r) Tabs

Intro
0:00
-----------9---------------9-----------------8-----------8----|
-----11------11------11------11---------9------9-----9-----9--|
--10----10--------10----10-----------10---10------10---10-----|
--------------------------------------------------------------|
--------------------------------------------------------------|
--------------------------------------------------------------|

---------8---------------8----------------8------------8------|
----11-----11------11------11-------11------11-----9-----9----|
-10----10-------10----10---------10----10-------10---10-------|
--------------------------------------------------------------|x3
--------------------------------------------------------------|
--------------------------------------------------------------|


Verse
0:25
---------------------------------------------------------------|
-------11---------11---------9---------9---------11---------11-|
----10----10---10----10---10---10---10---10---10----10---10----|
--8----------8----------8---------8---------8----------8-------|
---------------------------------------------------------------|
---------------------------------------------------------------|
---------------------------------------------------------------|

--------------------------------------------------------------|
---------11---------9-----------------------------------------|
-10---10----10---10---10--------------------------------------|
----8----------8----------------------------------------------| x2
--------------------------------------------------------------|
--------------------------------------------------------------|


Chorus or something
1:14
----------13----13--11--9-----------13----13--11--9----8--9--8-|
--11--14--------------------11--14-----------------------------|
---------------------------------------------------------------|
---------------------------------------------------------------|
---------------------------------------------------------------|
---------------------------------------------------------------|

-----------------------------|
--11-11--9-9--11-11----------|
-----------------------------|
-----------------------------| x2
-----------------------------|
-----------------------------|


1:31
--------8-9--------8-9----11--9--13--9--11--9--8--9---------8-|
--6/11--------6/11-------------------------------------6/11---|
--------------------------------------------------------------|
--------------------------------------------------------------|
--------------------------------------------------------------|
--------------------------------------------------------------|

9-------8-9-------------------|
--6/11------6/11--------------|
------------------------------|
------------------------------|
------------------------------|
------------------------------|


2:03
--------8-9--------8-9----11--9--13--9--11--9--8--9---------8-|
--6/11--------6/11-------------------------------------6/11---|
--------------------------------------------------------------|
--------------------------------------------------------------|
--------------------------------------------------------------|
--------------------------------------------------------------|

9-------8-9--------------------|
---6/11------6/11--------------|
-------------------------------|
-------------------------------|
-------------------------------|
-------------------------------|


2:20
--------13----16----14----13----11----9--11--13--11--9--------|
-----14-------------------------------------------------11--9-|
--15-------15----15----15----15-------------------------------|
--------------------------------------------------------------|
--------------------------------------------------------------|
--------------------------------------------------------------|

-----9--11--13--11--9------------9-----|
-11--------------------11--9--11-------|
---------------------------------------|
---------------------------------------|
---------------------------------------|
---------------------------------------|


2:28
--------13----16----14----13----11---9--11--13----13--11--13--|
-----14-------------------------------------------------------|
--15-------15----15----15----15-------------------------------|
--------------------------------------------------------------|
--------------------------------------------------------------|
--------------------------------------------------------------|

--13--16--18----18--16--18-------------|
---------------------------------------|
---------------------------------------|
---------------------------------------|
---------------------------------------|
---------------------------------------|


2:36
----------13----13--11--9-----------13----13--11--9----8--9--8-|
--11--14--------------------11--14-----------------------------|
---------------------------------------------------------------|
---------------------------------------------------------------|
---------------------------------------------------------------|
---------------------------------------------------------------|

-----------------------------|
--11-11--9-9--11-11----------|
-----------------------------|
-----------------------------| x2
-----------------------------|
-----------------------------|


3:17
--------13----16----14----13----11----9--11--13--11--9--------|
-----14-------------------------------------------------11--9-|
--15-------15----15----15----15-------------------------------|
--------------------------------------------------------------|
--------------------------------------------------------------|
--------------------------------------------------------------|

-----9--11--13--11--9------------9-----|
-11--------------------11--9--11-------|
---------------------------------------|
---------------------------------------|
---------------------------------------|
---------------------------------------|


3:25
--------13----16----14----13----11---9--11--14----13--11--13--|
-----14-------------------------------------------------------|
--15-------15----15----15----15-------------------------------|
--------------------------------------------------------------|
--------------------------------------------------------------|
--------------------------------------------------------------|

--13--16--18----18--16--18-------------|
---------------------------------------|
---------------------------------------|
---------------------------------------|
---------------------------------------|
---------------------------------------|


By: Stianerdal
Tap to rate this tab
# A B C D E F G H I J K L M N O P Q R S T U V W X Y Z