Song name
# A B C D E F G H I J K L M N O P Q R S T U V W X Y Z

Misc Computer Games - Red Dead Revolver Theme tab

Red Dead Revolver Theme Song.
http://www.rockstargames.com/reddeadrevolver/index2.htm

     Am
--------------------------------------------------------------|
--------------------------------------------------------------|
--------------------------------------------------------------|
--------------------------------------------------------------|
---12--12---12---12--15--12------12--10---7---10--(3x)---12---|
--------------------------------------------------------------|

 Am                                       D                            Am
--------------------------------------------------------------------------|
--------------------------------------------------------------------------|
--------------------------------------------------------------------------|
--------------------------------------------------------------------------|
------------------------------------------12------12--12-----14-----------|
-12---15--15----12------12---15---15------------------------------15---12-|
--------------------------------------------------------------------------|

                D                  C                   G
--------------------------------------------------------------------------|
--------------------------------------------------------------------------|
--------------------------------------------------------------------------|
----------------12-----12--12--15--15~-----15--15---12-12~-----12--12-----|
--12---12---15------------------------------------------------------------|
--------------------------------------------------------------------------|

         F                     Em           Am
--------------------------------------------------------------------------|
--------------------------------------------------------------------------|
--------------------------------------------------------------------------|
---12---------------------------------------------------------------------|
----------15---15---15------14-14-14----12-12-----------------------------|
--------------------------------------------------------------------------|

Took A while to figure out, but its pretty easy(:

P.S. please add me on ultimate guitar, my profile name is: haydiedoogie
Tap to rate this tab
# A B C D E F G H I J K L M N O P Q R S T U V W X Y Z