Song name
# A B C D E F G H I J K L M N O P Q R S T U V W X Y Z

Misc Computer Games - Castlevania 64 Theme tab

E |---------------|-----------------|---------------|-----------------|
B |---------------|------------1----|---------------|------------1----|
G |--0------------|--L--------------|--0------------|--L--------------|
D |---------------|-------3---------|---------------|-------3---------|
A |---------------|-----------------|---------------|-----------------|
E |---------------|-----------------|---------------|-----------------|

---------------|-----------------|---------------|----------------|
---------------|------------1----|---------------|----------------|
--0------------|--L--------------|--0------------|--L-------------|
---------------|-------3---------|---------------|----------------|
---------------|-----------------|---------------|----------------|
---------------|-----------------|---------------|----------------|

---------------|-----------------|---------------|-----------------|
---------------|------------1----|---------------|------------1----|
--0------------|--L--------------|--0------------|--L--------------|
---------------|-------3---------|---------------|-------3---------|
---------------|-----------------|---------------|-----------------|
---------------|-----------------|---------------|-----------------|

---------------|-----------------|-----------------|-----------------|
---------------|------------1----|-----------------|-----------------|
--0------------|--L--------------|--0--------------|--L--------------|
---------------|-------3---------|-----------------|------------0----|
---------------|-----------------|-----------------|--1----3---------|
---------------|-----------------|-------3----4----|-----------------|

--3----------L--1--------|--3-L------L-----1--------|------------------------|
----------------------1--|-----------------------4--|--3---------------------|
-------------------------|--------------------------|----------------3-------|
-------------3-----------|--------------3-----------|-------------5--------5-|
----------3--------3-----|-----------3--------3-----|----------5--------5----|
--1-------L--------------|--1--------L--------------|--3-------L-------------|

-----------------------|--3----------L--1--------|--3-------------1--------|
-----------------------|----------------------1--|-------------L--------4--|
--5--------------------|-------------------------|-------------------------|
-------------6---------|-------------3-----------|-------------3-----------|
----------6-------6----|----------3--------3-----|----------3--------3-----|
--4-------L------------|--1-------L--------------|--1-------L--------------|

--L--------------------|----------------------|--3-----------L-----------|
--3--------------------|--L-------------------|-----------------6--------|
-------------0---------|------------0---------|-----------------------5--|
----------0-------0----|---------0-------0----|--------------6-----------|
-----------------------|----------------------|----------6---------6-----|
--3-------L------------|--3------L------------|--4-------L---------------|

--3----------L-----------|-------------------------|-----------------------|
----------------6-----4--|--3----------------------|--1--------------------|
-------------------------|-------------L--3--------|-------------0---------|
-------------6-----------|-------------5--------5--|----------0-------0----|
----------6--------6-----|----------5--------5-----|--3-------L------------|
--4-------L--------------|--3-------L--------------|-----------------------|

--3-------3--L--1--------|--3----------------------|--1----------------------|
-------------1--------1--|----------6--L--------6--|-------------------------|
----------0--------0-----|----------------8--------|-------------3-----------|
-------------------------|-------------7-----------|----------1--------3-----|
--3-------L--------------|----------6--------6-----|--1-------L--------------|
-------------------------|--5-------L--------------|-------------------------|

-----------------------|--3-------------1----8----|--3--------L----1----8----|
--3--------------------|--------------------------|--------------------------|
-------------0---------|--------------------------|--------------------------|
----------0-------0----|-----------3----L---------|-----------3----L---------|
-----------------------|--------------------------|--------------------------|
--3-------L------------|--1--------L--------------|--1--------L--------------|

--3--------L----1----8----|--3-----------------|--3--------L----1----8----|
--------------------------|--------------------|--------------------------|
-----------0----L---------|-----------0--------|--L-----------------------|
--------------------------|--------------------|-----------3----L---------|
--3--------L--------------|--3--------L--------|--------------------------|
--------------------------|--------------------|--1--------L--------------|

--3--------L----1----8----|--3--------L----1----8----|--3-----------------|
--------------------------|--------------------------|--------------------|
--------------------------|-----------0----L---------|-----------0--------|
-----------3----L---------|--------------------------|--------------------|
--------------------------|--3--------L--------------|--3--------L--------|
--1--------L--------------|--------------------------|--------------------|

-------------------||
-------------------||
--L----------------||
-------------------||
-------------------||
-------------------||
Tap to rate this tab
 
# A B C D E F G H I J K L M N O P Q R S T U V W X Y Z