Song name
# A B C D E F G H I J K L M N O P Q R S T U V W X Y Z

Misc Computer Games - Final Fantasy Xiii - Title Screen Theme tab

This tab just covers the piano intro.
Song: http://www.youtube.com/watch?v=53JjzgVVwlU

e-7-8-7-5-3---3-1-0---0-------3-0---------3------------------------------------|
B-----------1-------3-------------0---------3----------------------------------|
G-----------------------2-4-5-------2-4-5--------------------------------------|
D------------------------------------------------------------------------------|
A------------------------------------------------------------------------------|
E------------------------------------------------------------------------------|

e-7-8-7-5-3---3-1-0---0-------3-0----------------------------------------------|
B-----------1-------3-------------0--------------------------------------------|
G-----------------------2-4-5-------2------------------------------------------|
D------------------------------------------------------------------------------|
A------------------------------------------------------------------------------|
E------------------------------------------------------------------------------|
Tap to rate this tab
# A B C D E F G H I J K L M N O P Q R S T U V W X Y Z