Song name
# A B C D E F G H I J K L M N O P Q R S T U V W X Y Z

Misc Computer Games - Nacht Der Untoten Theme tab


subscribe 2 me on youtube ------> mrguitarmano
i am awesome




e)-----------------|----------------|----------------|-------------|
B)-----------------|----------------|----------------|-------------|
G)-----------------|-10-----10------|10-----10-------|-12-----12---|
D)-11---11---------|----------------|---11-----11----|---13-----13-|
A)---13---13-------|----8------8----|----------------|-------------|
E)-----------------|----------------|----------------|-------------|

e)-----------------|----------------|----------------|-------------|
B)-----------------|----------------|----------------|-------------|
G)-----------------|-10-----10------|10-----10-------|-13-----14---|
D)-11---11---------|----------------|---11-----11----|---10-----10-|
A)---13---13-------|----8------8----|----------------|-------------|
E)-----------------|----------------|----------------|-------------|
Tap to rate this tab
# A B C D E F G H I J K L M N O P Q R S T U V W X Y Z