Song name
# A B C D E F G H I J K L M N O P Q R S T U V W X Y Z

Misc Computer Games - Sonic The Hedgehog 2 - Boss Battle tab

                              BOSS MACHINE

e|---------------------------------------------------------------------------|
B|---------------------------------------------------------------------------|
G|---------------------------------------------------------------------------|
D|---------------------------------------------------------------------------|
A|-3-0-0-3-0-0-3--5h7h8-7-5-7--3-0-0-3-0-0-3--5h7h8-7-5-7-11---7-------------|
E|---------------------------------------------------------------------------|

e|---------------------------------------------------------------------------|
B|---------------------------------------------------------------------------|
G|---------------------------------------------------------------------------|
D|---------------------------------------------------------------------------|
A|---0-2-3--5--3---2-3-2----------0-2-3-5-3---2-3-5-6-7----------------------|
E|------------------------3-0-3----------------------------------------------|

X4

e|---------------------------------------------------------------------------|
B|---------------------------------------------------------------------------|
G|---------------------------------------------------------------------------|
D|---------------------------------------------------------------------------|
A|-3-0-0-3-0-0-3--5h7h8-7-5-7--3-0-0-3-0-0-3--5h7h8-7-5-7-11---7-------------|
E|---------------------------------------------------------------------------|

e|---------------------------------------------------------------------------|
B|---------------------------------------------------------------------------|
G|---------------------------------------------------------------------------|
D|---------------------------------------------------------------------------|
A|---0-2-3--5--3---2-3-2----------0-2-3-5-3---2-3-5-6-7----------------------|
E|------------------------3-0-3----------------------------------------------|

X4
Tap to rate this tab
 
# A B C D E F G H I J K L M N O P Q R S T U V W X Y Z