Song name
# A B C D E F G H I J K L M N O P Q R S T U V W X Y Z

Misc Computer Games - Deadly Premonition - Whistle Theme chords

Highlighted       Show chord diagrams
First song I chorded. 
Listen to song for rhythm, all chords are proceeded by picking of their root. 
Chords are all played twice each, chords in square brackets are played once.

G C#m C D
G C#m C -
e|--------------|
B|------7-------|
G|--7-9---7-----|
D|--------------|
A|--------------|
E|--------------|

G C#m C D
G C#m C G
G C#m C D
G C#m C [G A5 B5 G]

C Cm Bm E Am D G [Dm C]
C Cm Bm E Am D 

G C#m C D
G C#m C -
e|--------------|
B|------7-------|
G|--7-9---7-----|
D|--------------|
A|--------------|
E|--------------|

G C#m C D
G C#m C G
G C#m C D
G C#m C [G A5 B5 G]

C Cm Bm E Am D G [Dm C]
C Cm Bm E Am D 

G C D G
G C D G
G C D G
G C D -

G C#m C D
G C#m C G
G C#m C D
G C#m C [G G]
Tap to rate this tab
 
# A B C D E F G H I J K L M N O P Q R S T U V W X Y Z