Song name
# A B C D E F G H I J K L M N O P Q R S T U V W X Y Z

Misc Computer Games - Deadly Premonition - Whistle Theme tab

-------------------------------------------------------------------------------
	        Whistle Theme (Life is Beautiful) - Deadly Premonition
-------------------------------------------------------------------------------
Tabbed by:David
Email:ugly_pugly2000@hotmail.com

Tuning:Standard

        G        C#m        C         D               
                                                      
e|------3---3-----4---4-----0---0-----2---2---------| 
B|------3---3-----5---5-----1---1-----3---3---------| 
G|------0---0-----6---6-----0---0-----2---2---------| 
D|------0---0-----6---6-----2---2---0---0---0-------| 
A|------2---2-0-4-4-4-4-0-3-3-3-3-0-----------------| 
E|----3-3-3-3---------------------------------------| 
           
                                          
        G        C#m        C                         
                                                      
e|------3---3-----4---4-----0---0-------------------| 
B|------3---3-----5---5-----1---1---3-5-7-3---------|
G|------0---0-----6---6-----0---0-------------------| 
D|------0---0-----6---6-----2---2---0-2-4-0---------| 
A|------2---2-0-4-4-4-4-0-3-3-3-3-0-----------------|
E|----3-3-3-3---------------------------------------| 


        G        C#m        C         D

e|------3---3-----4---4-----0---0-----2---2---------|
B|------3---3-----5---5-----1---1-----3---3---------|
G|------0---0-----6---6-----0---0-----2---2---------|
D|------0---0-----6---6-----2---2---0---0---0-------|
A|------2---2-0-4-4-4-4-0-3-3-3-3-0-----------------|
E|----3-3-3-3---------------------------------------|


        G        C#m        C         G  
  
e|------3---3-----4---4-----0---0-----3---3---------|
B|------3---3-----5---5-----1---1-----3---3---------|
G|------0---0-----6---6-----0---0-----0---0---------|
D|------0---0-----6---6-----2---2-0---0---0---------|
A|------2---2-0-4-4-4-4-0-3-3-3-3-----2---2---------|
E|----3-3-3-3-----------------------3-3-3-3-3-------|


        G        C#m        C         D

e|------3---3-----4---4-----0---0-----2---2---------|
B|------3---3-----5---5-----1---1-----3---3---------|
G|------0---0-----6---6-----0---0-----2---2---------|
D|------0---0-----6---6-----2---2---0---0---0-------|
A|------2---2-0-4-4-4-4-0-3-3-3-3-0-----------------|
E|----3-3-3-3---------------------------------------|


        G        C#m        C         
  
e|------3---3-----4---4-----0---0-------------------|
B|------3---3-----5---5-----1---1-------------------|
G|------0---0-----6---6-----0---0-------------------|
D|------0---0-----6---6-----2---2-0-5-7-9-5---------|
A|------2---2-0-4-4-4-4-0-3-3-3-3---5-7-9-5---------|
E|----3-3-3-3-----------------------3-5-7-3---------|


     C         Cm        Bm        E         Am        D         G         Dm  C

e|---0---0-----3---3-----2---2-----0---0-----0---0-----2---2-----3---3-----1---0-|
B|---1---1-----4---4-----3---3-----0---0-----1---1-----3---3-----3---3-----3---1-|
G|---0---0-----5---5-----4---4-----1---1-----2---2-----2---2-----0---0-----2---0-|
D|---2---2-----5---5-----4---4---2-2-2-2-----2---2---0---0---0---0---0---0-----2-|
A|-3-3-3-3-0-3-3-3-3-0-2-2-2-2-0---2---2-0-0---0---0-------------2---2---------3-|
E|-------------------------------------------------------------3-3-3-3-3-----3---|


     C         Cm        Bm        E         Am        D    
             
e|---0---0-----3---3-----2---2-----0---0-----0---0-----2---2-----|
B|---1---1-----4---4-----3---3-----0---0-----1---1-----3---3-----|
G|---0---0-----5---5-----4---4-----1---1-----2---2-----2---2-----|
D|---2---2-----5---5-----4---4---2-2-2-2-----2---2---0---0---0---|
A|-3-3-3-3-0-3-3-3-3-0-2-2-2-2-0---2---2-0-0---0---0-------------|
E|---------------------------------------------------------------|


        G        C#m        C         D               
                                                      
e|------3---3-----4---4-----0---0-----2---2---------| 
B|------3---3-----5---5-----1---1-----3---3---------| 
G|------0---0-----6---6-----0---0-----2---2---------| 
D|------0---0-----6---6-----2---2---0---0---0-------| 
A|------2---2-0-4-4-4-4-0-3-3-3-3-0-----------------| 
E|----3-3-3-3---------------------------------------| 
    
                                                 
        G        C#m        C                         
                                                      
e|------3---3-----4---4-----0---0-------------------| 
B|------3---3-----5---5-----1---1---3-5-7-3---------|
G|------0---0-----6---6-----0---0-------------------| 
D|------0---0-----6---6-----2---2---0-2-4-0---------| 
A|------2---2-0-4-4-4-4-0-3-3-3-3-0-----------------|
E|----3-3-3-3---------------------------------------| 


        G        C#m        C         D

e|------3---3-----4---4-----0---0-----2---2---------|
B|------3---3-----5---5-----1---1-----3---3---------|
G|------0---0-----6---6-----0---0-----2---2---------|
D|------0---0-----6---6-----2---2---0---0---0-------|
A|------2---2-0-4-4-4-4-0-3-3-3-3-0-----------------|
E|----3-3-3-3---------------------------------------|


        G        C#m        C         G  
  
e|------3---3-----4---4-----0---0-----3---3---------|
B|------3---3-----5---5-----1---1-----3---3---------|
G|------0---0-----6---6-----0---0-----0---0---------|
D|------0---0-----6---6-----2---2-0---0---0---------|
A|------2---2-0-4-4-4-4-0-3-3-3-3-----2---2---------|
E|----3-3-3-3-----------------------3-3-3-3-3-------|


        G        C#m        C         D

e|------3---3-----4---4-----0---0-----2---2---------|
B|------3---3-----5---5-----1---1-----3---3---------|
G|------0---0-----6---6-----0---0-----2---2---------|
D|------0---0-----6---6-----2---2---0---0---0-------|
A|------2---2-0-4-4-4-4-0-3-3-3-3-0-----------------|
E|----3-3-3-3---------------------------------------|


        G        C#m        C         
  
e|------3---3-----4---4-----0---0-------------------|
B|------3---3-----5---5-----1---1-------------------|
G|------0---0-----6---6-----0---0-------------------|
D|------0---0-----6---6-----2---2-0-5-7-9-5---------|
A|------2---2-0-4-4-4-4-0-3-3-3-3---5-7-9-5---------|
E|----3-3-3-3-----------------------3-5-7-3---------|


     C         Cm        Bm        E         Am        D         G         Dm  C

e|---0---0-----3---3-----2---2-----0---0-----0---0-----2---2-----3---3-----1---0-|
B|---1---1-----4---4-----3---3-----0---0-----1---1-----3---3-----3---3-----3---1-|
G|---0---0-----5---5-----4---4-----1---1-----2---2-----2---2-----0---0-----2---0-|
D|---2---2-----5---5-----4---4---2-2-2-2-----2---2---0---0---0---0---0---0-----2-|
A|-3-3-3-3-0-3-3-3-3-0-2-2-2-2-0---2---2-0-0---0---0-------------2---2---------3-|
E|-------------------------------------------------------------3-3-3-3-3-----3---|


     C         Cm        Bm        E        Am        D         G       G
           
e|---0---0-----3---3-----2---2-----0---0-----0---0-----2---2-----3---3-----------|
B|---1---1-----4---4-----3---3-----0---0-----1---1-----3---3-----3---3---3---3---|
G|---0---0-----5---5-----4---4-----1---1-----2---2-----2---2-----0---0---0---0---|
D|---2---2-----5---5-----4---4---2-2-2-2-----2---2---0---0---0---0---0---0---0---|
A|-3-3-3-3-0-3-3-3-3-0-2-2-2-2-0---2---2-0-0---0---0-------------2---2---2---2---|
E|-------------------------------------------------------------3-3-3-3-3-3-3-3-3-|


     G         C         D         G         G         C         D         G

e|---3---3-----0---0-----2---2-----3---3-----3---3-----0---0-----2---2-----3---3---|
B|---3---3-----1---1-----3---3-----3---3-----3---3-----1---1-----3---3-----3---3---|
G|---0---0-----0---0-----2---2-----0---0-----0---0-----0---0-----2---2-----0---0---|
D|---0---0-----2---2---0---0---0---0---0-----0---0-----2---2---0---0---0---0---0---|
A|---2---2-0-3-3-3-3-0-------------2---2---2-2-2-2-2-3-3-3-3-0-------------2---2---|
E|-3-3-3-3-----------------------3-3-3-3-3-------------------------------3-3-3-3-3-|


     G         C         D         G         G         C         D

e|---3---3-----0---0-----2---2-----3---3-----3---3-----0---0-----2---2----|
B|---3---3-----1---1-----3---3-----3---3-----3---3-----1---1-----3---3----|
G|---0---0-----0---0-----2---2-----0---0-----0---0-----0---0-----2---2----|
D|---0---0-----2---2---0---0---0---0---0-----0---0-----2---2---0---0---0--|
A|---2---2-0-3-3-3-3-0-------------2---2---2-2-2-2-2-3-3-3-3-0------------|
E|-3-3-3-3-----------------------3-3-3-3-3--------------------------------|


        G         C#m       C         D

e|------3---3-----4---4-----0---0-----2---2---------|
B|------3---3-----5---5-----1---1-----3---3---------|
G|------0---0-----6---6-----0---0-----2---2---------|
D|------0---0-----6---6-----2---2---0---0---0-------|
A|------2---2-0-4-4-4-4-0-3-3-3-3-0-----------------|
E|----3-3-3-3---------------------------------------|


        G         C#m       C         D

e|------3---3-----4---4-----0---0-----2---2---3-3-----|
B|------3---3-----5---5-----1---1-----3---3---3-3-----|
G|------0---0-----6---6-----0---0-----2---2---0-0-----|
D|------0---0-----6---6-----2---2---0---0---0-0-0-----|
A|------2---2-0-4-4-4-4-0-3-3-3-3-0-----------2-2-----|
E|----3-3-3-3---------------------------------3-3-----|
Tap to rate this tab
 
# A B C D E F G H I J K L M N O P Q R S T U V W X Y Z