Song name
# A B C D E F G H I J K L M N O P Q R S T U V W X Y Z

Misc Computer Games - Socom 3 Theme tab

in my opinion, this is the best theme song for a videogame ever...there might be a few 
since it is originally made for an orchestra, not a guitar...and i tabbed it all by ear

enjoy


e|---------------------------------------------------------------|
B|-----7-8--7---------------------------7-8----8-7---------------|
G|---9--------7/-9---7----------------9------9-----7-------------|
D|--------------------10-9~ ~--5/-7-------------------9~ ~ ~-----|
A|---------------------------------------------------------------|
E|---------------------------------------------------------------|

e|----------------------------------------------------------------|
B|----7-8--7----------------------------7-8----8-10----10b12~ ~ ~-|
G|--9--------7/-9---7-----------------9------9-------7------------|
D|-------------------10-9~ ~--5/ 7--------------------------------|
A|----------------------------------------------------------------|
E|----------------------------------------------------------------|

e|----------------------------------------------------------------------|
B|----------------------------------------------------------------------|
G|----------------------------------------------------------------------|
D|---------4-5p4h5-----4-5----------------------------------------------|
A|-------7-----------7------9p7/-5---55-77--7---------------------------|
E|---------------------------------------------777-888-555-777--8-7-6-5-|

e|-------------------------------------------------------|
B|-------------------------------------------------------|
G|-------------------------------------------------------|
D|-------------------------------------------------------|
A|-------------------------------------------------------|
E|-777-888-101010-887--8-7-6-5--777-888-555-777--8-7-6-5-|

e|----------------------------------------------------------------------|
B|----------------------------------------------/9--8-------------------|
G|----------------------------------------------------8/-10---8---------|
D|-------------------------------------------------------------11-10~ ~-|
A|---------555-666--7--9--11--12~ ~ ~-----------------------------------|
E|-777-888--------------------------------------------------------------|

e|--------------------------------------------------------|
B|------------8-9-----9-11----11b13~ ~------13-14---------|
G|---------10------10-------8------------15-------13/-15--|
D|--6/-8--------------------------------------------------|
A|--------------------------------------------------------|
E|--------------------------------------------------------|

e|------------------------------------------------------------------|
B|--13-14--pb16r14-------13-14----14/13--16-14----14-14-14----------|
G|-----------------15----------15-----------------------------------|
D|------------------------------------------------------------------|
A|------------------------------------------------------------------|
E|------------------------------------------------------------------|
Tap to rate this tab
 
# A B C D E F G H I J K L M N O P Q R S T U V W X Y Z