Song name
# A B C D E F G H I J K L M N O P Q R S T U V W X Y Z

Misc Computer Games - Resident Evil 1 - Save Room tab

Resident Evil 1
---------------------------

Album: Resident Evil 1 Soundtrack
Song: Resident Evil 1 Save Room
Tunning: Standard
Tabber: master of kittens
Timing: 3-4

  Acc. (after play once through)                          Rit.
   E  E  E E  E  E   E  E  E E  E  E    E  E  E E  E  E   E  E  E E  E  E
e------------------|------------------|------------------|-----------------|
B-------------6----|------------6-----|------------6-----|-----------6-----|
G--------2/3-----3-|-------2/3-----3--|-------2/3-----3--|------2/3-----3--|
D------------------|------------------|------------------|-----------------|
A-----5------------|----5-------------|----5-------------|---5-------------|
E--3---------------|-3----------------|-3----------------|3----------------|

  Acc.                                                    Rit.
  E  E  E  E  E  E  E  E  E  E  E  E   E  E  E  E  E  E   E  E  E  E  E  E
e-------------6----|------------6-----|------------6-----|------------6----|
B----------4-----4-|---------4-----4--|---------4-----4--|---------4-----4-|
G-------7----------|------7-----------|------7-----------|------7----------|
D------------------|------------------|------------------|-----------------|
A----6-------------|---6--------------|---6--------------|---6-------------|
E-4----------------|4-----------------|4-----------------|4----------------|
                                                                      REPEAT
W=WHOLE NOTE
H=HALF NOTE
Q=QUARTER NOTE
E=EIGHTH NOTE
S=SIXTEENTH NOTE
T=THIRTY-SECOND NOTE
.=DOTTED NOTE
Tap to rate this tab
# A B C D E F G H I J K L M N O P Q R S T U V W X Y Z