Song name
# A B C D E F G H I J K L M N O P Q R S T U V W X Y Z

Misc Computer Games - Deadly Premonition - Whistle Theme tab

-------------------------------------------------------------------------------
			     Life is Beautiful - Deadly Premonition
-------------------------------------------------------------------------------


Tuning: Standard (E A D G B e)

Tab by: Bagrm a.k.a PushThePig

All of the other tabs I have seen for this tune were horribly inaccurate, so I decided
to write this one. Feel free to submit any corrections in the comments, although I am
pretty sure it is close to 100 percent correct. Catchy tune from a great video game!


Rhythm A:
   Gmaj7     C#m7b5    Cmaj7       D7      Gmaj7     C#m7b5     C5
|-----------------------------------------------------------------------------------|
|----3---3-----5---5-----5---5-----3---3-----3---3-----5---5-----5---5---3-5-7-3----|
|----4---4-----4---4-----4---4-----5---5-----4---4-----4---4-----5---5--------------|
|----4---4-----5---5-----5---5-----4---4-----4---4-----5---5-----4---4---0-2-4-0----|
|----------0-4---4---0-3---3---0-5---5-------------0-4---4---0-3---3---0------------|
|--3---3---------------------------------5-3---3------------------------------------|


Rhythm B:
   Gmaj7     C#m7b5    Cmaj7       D7      Gmaj7     C#m7b5     C5       Gmaj7
|-----------------------------------------------------------------------------------|
|----3---3-----5---5-----5---5-----3---3-----3---3-----5---5-----5---3-----3---3----|
|----4---4-----4---4-----4---4-----5---5-----4---4-----4---4-----5---4-----4---4----|
|----4---4-----5---5-----5---5-----4---4-----4---4-----5---5-----4---4-----4---4----|
|----------0-4---4---0-3---3---0-5---5-------------0-4---4---0-3---3----------------|
|--3---3---------------------------------5-3---3-----------------------5-3---3---0--|


Rhythm C:
    Gmaj7     C#m7b5    Cmaj7      D7      Gmaj7     C#m7b5     C5      Gmaj7 Am7 Dm7 Gmaj7
|------------------------------------------------------------------------------------------|
|----3---3-----5---5-----5---5-----3---3-----3---3-----5---5-----5---3---------------------|
|----4---4-----4---4-----4---4-----5---5-----4---4-----4---4-----5---4----4---5---7---4----|
|----4---4-----5---5-----5---5-----4---4-----4---4-----5---5-----4---4----4---5---7---4----|
|----------0-4---4---0-3---3---0-5---5-------------0-4---4---0-3---3------5---7---9---5----|
|--3---3---------------------------------5-3---3-----------------------5--3---5---7---3----|


Rhythm D:
    C5        Cm7       Bm7      Fmaj7      Am7       D9b5     Gmaj7      Dm7 D#m7b5
|----------------------------------1---1---------------------------------------------------|
|----5---5-----4---4-----3---3-----1---1-----1---1-----5---5-----3---3-----6---6-----------|
|----5---5-----3---3-----2---2-----2---2-----0---0-----5---5-----4---4-----5---5-----------|
|----4---4-----5---5-----4---4---2---2-------2---2-----4---4-----4---4-----7---6-----------|
|--3---3---0-3---3---0-2---2---0---------0-0---0---0-5---5-------------0-5---5---0---------|
|------------------------------------------------------------5-3---3-----------------------|


Rhythm E:
    C5        Cm7       Bm7      Fmaj7      Am7       D9b5     
|----------------------------------1---1-----------------------|
|----5---5-----4---4-----3---3-----1---1-----1---1-----5---5---|
|----5---5-----3---3-----2---2-----2---2-----0---0-----5---5---|
|----4---4-----5---5-----4---4---2---2-------2---2-----4---4---|
|--3---3---0-3---3---0-2---2---0---------0-0---0---0-5---5-----|
|------------------------------------------------------------5-|


Rhythm F:
    C5        Cm7       Bm7      Fmaj7      Am7       D9b5     Gmaj7       D11
|----------------------------------1---1---------------------------------------|
|----5---5-----4---4-----3---3-----1---1-----1---1-----5---5-----3--3---3---3--|
|----5---5-----3---3-----2---2-----2---2-----0---0-----5---5-----4--4---4---5--|
|----4---4-----5---5-----4---4---2---2-------2---2-----4---4-----4--4---4---4--|
|--3---3---0-3---3---0-2---2---0---------0-0---0---0-5---5---------------------|
|------------------------------------------------------------5-3---3--3---3---0|


Rhythm G:
   Gmaj7      C5         D7      Gmaj7      Bm7b5        C5        D7 
|---------------------------------------------------------------------------|
|----3---3-----5---5-----3---3-----3---3-----3---3-------5---5------3---3---|
|----4---4-----5---5-----5---5-----4---4-----2---2-------5---5------5---5---|
|----4---4-----4---4-----4---4-----4---4-----3---3-------4---4------4---4---|
|----------0-3---3---0-5---5-------------0-2---2-----0-3---3----0-5---5-----|
|--3---3-----------------------5-3---3------------------------------------5-|


Rhythm H:
   Gmaj7     C#m7b5    Cmaj7       D7      Gmaj7     C#m7b5    Cmaj7       D7        Gmaj7
|----------------------------------------------------------------------------------------|
|----3---3-----5---5-----5---5-----3---3-----3---3-----5---5-----5---5-----3---3---3-x-3-|
|----4---4-----4---4-----4---4-----5---5-----4---4-----4---4-----4---4-----5---5---5-x-4-|
|----4---4-----5---5-----5---5-----4---4-----4---4-----5---5-----5---5-----4---4---4-x-4-|
|----------0-4---4---0-3---3---0-5---5-------------0-4---4---0-3---3---0-5---5-----5-x-5-|
|--3---3---------------------------------5-3---3---------------------------------0-------|


Melody A:
|--7-------------------------7-5----7----------------------------|
|----8-8---5-8-----5-8---8-5----------8-8---5-8-----5-8---8-10-8-|
|--------7-------7------------------------7-------7--------------|
|----------------------------------------------------------------|
|----------------------------------------------------------------|
|----------------------------------------------------------------|


Melody B:
|-----------------5--------------------------------------|
|--8p5h8p5--5-4-8---8---7-3-0-5---1-1-0h1h3--5-5-8-7-8-3-|
|--------------------------------------------------------|
|--------------------------------------------------------|
|--------------------------------------------------------|
|--------------------------------------------------------|


Melody C:
|-----------------5--------------------------------------|
|--8p5h8p5--5-4-8---8---7-3-0-5---1-1-0h1h3--5-5-8-7-8-8-|
|--------------------------------------------------------|
|--------------------------------------------------------|
|--------------------------------------------------------|
|--------------------------------------------------------|


Melody D:                      
|--10-7-------------7----------10-7-------------7--------|                                 
|-------10-8---8-10---10-8----------10-8---8-10---10-8-8-|
|------------9-------------7-------------9---------------|
|--------------------------------------------------------|
|--------------------------------------------------------|
|--------------------------------------------------------|

Song Ordering:
Rhythm A x1
Rhythm B x1	Melody A x1
Rhythm C x1	Melody A x1
Rhythm D x1	Melody B x1
Rhythm E x1	Melody C x1

Rhythm A x1
Rhythm B x1	Melody A x1
Rhythm C x1	Melody A x1
Rhythm D x1	Melody B x1
Rhythm F x1	Melody C x1

Rhythm G x2	Melody D x2
Rhythm H x1

************************************

| /   slide up
| \   slide down
| h   hammer-on
| p   pull-off
| ~   vibrato
| +   harmonic
| x   Mute note
| b   Bend
| pb  Pre-bend
| br  Bend release
| pbr Pre-bend release
| brb Bend release bend

************************************
Tap to rate this tab
# A B C D E F G H I J K L M N O P Q R S T U V W X Y Z