Song name
# A B C D E F G H I J K L M N O P Q R S T U V W X Y Z

Misc Computer Games - Pokemon - Pokemaniac Encounter tab

                                             Pokemon
                                       POKEMANIAC ENCOUNTER	
                                     Gold  Silver  Crystal
                                           Time: 3/4 


Main Melody (Pan Flute)

     Q     S S  S  S Q          Q.      E   E   E      Q.      E   E   E   
E||------------------8----||---18------17--16--15--|--14----------14--17--|
B||---------------10------||-----------------------|----------18----------|
G||----------9-11---------||*----------------------|----------------------|
D||-------10--------------||*----------------------|----------------------|
A||-----------------------||-----------------------|----------------------|
E||-----------------------||-----------------------|----------------------|


   Q     E   E   E   E      Q     E   E   E   E      Q.      E   E   E   
------------------------|--14--------14------14--|--15------14--13--12--|
------------------------|--------13------13------|----------------------|
------------------------|------------------------|----------------------|
--13--------13------13--|------------------------|----------------------|
--------15------15------|------------------------|----------------------|
------------------------|------------------------|----------------------|


   Q.      E   E   E      Q     E   E   E   E   
------------------14--|------------------------|
--16------15--16------|--13--------13--16--13--|
----------------------|--------14--------------|
----------------------|------------------------|
----------------------|------------------------|
----------------------|------------------------|


                            Repeat infinitely   
   Q     E   E   E   E                
----------------14---------------------||
--16--------16------13-----------------||
--------14----------------------------*||
--------------------------------------*||
---------------------------------------||
---------------------------------------||












Harmony I (Acoustic guitar)

     Q    S S S S Q         Q    Q    Q       Q    Q    Q       Q    Q    Q     
E||--------------------||--------2----5----|-----------------|-------2----5----|
B||--------------------||------------------|------------4----|-----------------|
G||-------2------------||*-----------------|-------5---------|-----------------|
D||---------4-1--------||*-----------------|-----------------|-----------------|
A||-------------3-0----||---3--------------|-----------------|--3--------------|
E||--------------------||------------------|--3--------------|-----------------|


  Q    Q    Q       Q    Q    Q       Q    Q    Q       Q    Q    Q     
-----------------|------------2----|-----------------|------------2----|
------------4----|-------4---------|------------1----|-------4---------|
-------5---------|-----------------|-------2---------|-----------------|
-----------------|-----------------|-----------------|-----------------|
-----------------|--0--------------|-----------------|--0--------------|
--3--------------|-----------------|--0--------------|-----------------|


                 Repeat infinitely    
  Q    Q    Q                
-------------------------------||
------------1------------------||
-------2----------------------*||
------------------------------*||
-------------------------------||
--0----------------------------||










Harmony II (Acoustic guitar)

     H.                Q    Q    Q       Q    Q    Q       Q    Q    Q     
E||---------------||--------6----6----|-------6----6----|-------6----6----|
B||---------------||------------------|-----------------|-----------------|
G||---------------||*-----------------|-----------------|-----------------|
D||---------------||*-----------------|-----------------|-----------------|
A||---------------||------------------|-----------------|-----------------|
E||---------------||------------------|-----------------|-----------------|


  Q    Q    Q       Q    Q    Q       Q    Q    Q       Q    Q    Q     
-------6----6----|-----------------|-----------------|-----------------|
-----------------|-------8----8----|-------8----8----|-------8----8----|
-----------------|-----------------|-----------------|-----------------|
-----------------|-----------------|-----------------|-----------------|
-----------------|-----------------|-----------------|-----------------|
-----------------|-----------------|-----------------|-----------------|


                 Repeat infinitely    
  Q    Q    Q                
-------------------------------||
-------8----8------------------||
------------------------------*||
------------------------------*||
-------------------------------||
-------------------------------||




Duration Legend
---------------
W - whole
H - half
Q - quarter
E - 8th
S - 16th
T - 32nd
X - 64th
. - note dotted
|-n-|  - n-tuplets


Tablature Legend
----------------
L - tied note
x - dead note
g - grace note
(n) - ghost note
> - accentuded note
NH - natural harmonic
AH - artificial harmonic
TH - tapped harmonic
SH - semi harmonic
PH - pitch harmonic
h - hammer on
p - pull off
b - bend
br - bendRelease
pb - preBend
pbr - preBendRelease
brb - bendReleaseBend
\n/ - tremolo bar dip
\n - tremolo bar dive
-/n - tremolo bar Release up
/n\ - tremolo bar inverted dip
/n - tremolo bar return
-\n - tremolo bar Release down
S - shift slide
s - legato slide
/ -  slide into from below or out of upwards
\ -  slide into from above or out of downwards
~ - vibrato
W - wide vibrato
tr - trill
TP - tremolo picking
T - tapping
S - slap
P - pop
< - fade in
^ - brush up
v - brush down
Tap to rate this tab
# A B C D E F G H I J K L M N O P Q R S T U V W X Y Z