Song name
# A B C D E F G H I J K L M N O P Q R S T U V W X Y Z

Misc Computer Games - Tetris Theme tab

----------------------------------------------------------------------------
			    Tetris Theme
----------------------------------------------------------------------------

Easy song, just run through a few times to get it. Play over and over until you win your 
lose if case may be).

E ||0------------------0---------------0--------|
B |:-0-1-3--1-0-----1-----3-1-0--0-1-3---1------|
G ||------------2-2------------------------2-2--|
D ||--------------------------------------------|
A |:--------------------------------------------|
E ||--------------------------------------------|


E -----1--5-3-1-0-----0----------------0--------||
B --3---------------1---3--1--0-0-1-3----1------:|
G -----------------------------------------2-2--|| X2
D ----------------------------------------------||
A ----------------------------------------------:|
E ----------------------------------------------||

E --0------------------0----------0-5--4--------|
B ----1-3-0-1-----0-------1--3-0-1--------------|
G ------------2-1-------------------------------|
D ----------------------------------------------|
A ----------------------------------------------|
E ----------------------------------------------|

||                                        ||
|:                                        :|
||  <----Begin repeat :: End repeat---->  || X
||                                        ||
|:                                        :|
||                                        ||
Tap to rate this tab
 
# A B C D E F G H I J K L M N O P Q R S T U V W X Y Z