Song name
# A B C D E F G H I J K L M N O P Q R S T U V W X Y Z

Misc Computer Games - Legend Of Zelda - Eponas Song tab

Tabbed and submitted by: epilare
E-Mail: epilare@hotmail.com

Tuning: EADGBe

This is "Epona's song" from the popular Nintendogame, The Legend of Zelda -Ocarina of 
Please rate and comment.


s=slide

e|-10-7-----10-7-----10-7----7----|
B|------10-------10-------10---10-|
G|--------------------------------|
D|--------------------------------|
A|--------------------------------|
E|--------------------------------|

e|---------10s11-7--10--10-9-6-3--|
B|-7------------------------------|
G|---10-11------------------------|
D|--------------------------------|
A|--------------------------------|
E|--------------------------------|
Tap to rate this tab
# A B C D E F G H I J K L M N O P Q R S T U V W X Y Z