Song name
# A B C D E F G H I J K L M N O P Q R S T U V W X Y Z

Misc Computer Games - Tetris Theme tab

Made this up by experimenting with the multifinger plucking
and slide style. I recommend hitting the strings hard if your
using an acoustic guitar so that when you slide you can hear all the notes

'/' '\' denotes slides up and down respectively

e-|--0-------0-------0-----0----0-0-0-0------------------|
B-|---013-----013-----01----01---------------------------|
G-|------------------------------------------------------|
D-|------------------------------------------------------|
A-|------------------------------------------------------|
E-|------------------------------------------------------|

e-|-----0------0----------00-------------00--------------|
B-|-------0-1-3-3-1-0----1--2-1-2-0-1-22---1/3\1---------|
G-|-------------------202------------------------2-202---|
D-|------------------------------------------------------|
A-|------------------------------------------------------|
E-|------------------------------------------------------|

e-|-------1-66-3/6\1-0---00--------------00--------------|
B-|--01-2--------------1----3/6\1-0-0133----1/3\1--------|
G-|-----------------------------------------------22-----|
D-|------------------------------------------------------|
A-|------------------------------------------------------|
E-|------------------------------------------------------|


e-|--0-0000----------------------------------------------|
B-|--------1-1111-3-3333-0-0000-1-1111-------------------|
G-|-----------------------------------2-2222-1-1-1-1-1---|
D-|------------------------------------------------------|
A-|------------------------------------------------------|
E-|------------------------------------------------------|

e-|--0-0000------------------------0-0-6-6-6-6-5-55-55-5-|
B-|--------1-1111-3-3333-0-0000-1-1----------------------|
G-|------------------------------------------------------|
D-|------------------------------------------------------|
A-|------------------------------------------------------|
E-|------------------------------------------------------|

Parad0x13
- bryanandhallie@yahoo.com -
Tap to rate this tab
 
# A B C D E F G H I J K L M N O P Q R S T U V W X Y Z