Misc Computer Games - Baldurs Gate - Candlekeep tab

Baldurs Gate - Candlekeep
Tabbed by drawnacrol

Listen to the music for the rhythm of the notes:
http://www.youtube.com/watch?v=77sCLEDROVA


|------------------------------------------------------------------------|
|------------------------------------------------------------------------|
|--7--5--7---------7--5--7--------7--5--7-----10--9-----7----------------|
|------------------------------------------------------------------------|
|------------------------------------------------------------------------|
|------------------------------------------------------------------------|

|------------------------------------------------------------------------|
|------------------------------------------------------------------------|
|--7--5--7---------7--5--7--------7--5--7-----10--9-----7----------------|
|------------------------------------------------------------------------|
|------------------------------------------------------------------------|
|------------------------------------------------------------------------|

|------------------------------------------------------------------------|
|------------------------------------------------------------------------|
|------------------------------------------------------------------------|
|--9--7--9--------9--7--9--------8-------7-------------------------------|
|------------------------------------------------------------------------|
|------------------------------------------------------------------------|

|------------------------------------------------------------------------|
|------------------------------------------------------------------------|
|------------------------------------------------------------------------|
|--9--5--9------7-----9----6----5------------------------9---10----------|
|-------------------------------------8---7----5-------------------------|
|------------------------------------------------------------------------|

|------------------------------------------------------------------------|
|------------------------------------------------------------------------|
|------------------------------------------------------------------------|
|--9---7---9----8-----7--------9----6----5-------------------------------|
|--------------------------------------------8------7---5----------------|
|------------------------------------------------------------------------|

|------------------------------------------------------------------------|
|------------------------------------------------------------------------|
|------------------------------------------------------------------------|
|---9----10--------------------------------------------------------------|
|------------------------------------------------------------------------|
|------------------------------------------------------------------------|
Tap to rate this tab
 
# A B C D E F G H I J K L M N O P Q R S T U V W X Y Z