Song name
# A B C D E F G H I J K L M N O P Q R S T U V W X Y Z

Misc Computer Games - Baldurs Gate - Waukeens Promenade tab

Baldurs Gate 2 - Waukeen’s Promenade
Tabbed by drawnacrol

Listen to the music for the rhythm of the notes:
http://www.youtube.com/watch?v=FeEV8JZN79o

Since its not a guitar that plays this melody it leaves the fingering completely subjective. 
Use slides and legato to give more feel to the piece.


|------------------------------------------------------------------------|
|-------------------10------11-----13--11--10----------------------------|
|-----------11--12------12----------------------12--11--8-----8--5--7----|
|--10---12---------------------------------------------------------------|
|------------------------------------------------------------------------|
|------------------------------------------------------------------------|

|------------------------------------------------------------------------|
|-------------------10------13----12--11--8------------------------------|
|-----------11--12------12--------------------8--------------------------|
|--10---12---------------------------------------------------------------|
|------------------------------------------------------------------------|
|------------------------------------------------------------------------|

|------11-------------10-------------------------------------------------|
|--11-------11---10-------13----13--10----8--11--10--8--8---------7------|
|-----------------------------------------------------------8--5--7------|
|----------------------------------------------------------(2-insts)-----|
|------------------------------------------------------------------------|
|------------------------------------------------------------------------|
Tap to rate this tab
 
# A B C D E F G H I J K L M N O P Q R S T U V W X Y Z