Misc Computer Games - Left 4 Dead 2 Theme tab

E|--------------------------------|--------|
B|--------------------------------|--------|
G|--------------------------------|--------|
D|--------------------------------|--5--7--|
A|--------5--2--3--2--0--2--3--2--|--5--7--|
E|--0--0--------------------------|--------|

E|--------------------------------|--------|
B|--------------------------------|--------|
G|--------------------------------|--------|
D|--------------------------------|--------|
A|--------5--2--3--2--0--5--6--5--|--7--5--|
E|--0--0--------------------------|--7--5--|


That's the one everyone's looking for!
Tap to rate this tab
 
# A B C D E F G H I J K L M N O P Q R S T U V W X Y Z