Misc Computer Games - Braid - Downstream tab

e[-------------------------------------------------------------------]
B[-------18--15------------------------------------------------------]
G[-15-------------17--15--14-------17--------------------------------]
D[-------------------------------------17---15-----------------------]
A[-------------------------------------------------------------------]
E[-------------------------------------------------------------------]

e[-------------------------------------------------18----------------]
B[--------18--15-----------16--18--20--21----20--21------------------]
G[-15--------------17--15--------------------------------------------]
D[-------------------------------------------------------------------]
A[-------------------------------------------------------------------]
E[-------------------------------------------------------------------]


its not the whole song but! if u listen to the song you might get a better picture of it 
i did. p.s thought i would just put this
song out there ya know.
Tap to rate this tab
 
# A B C D E F G H I J K L M N O P Q R S T U V W X Y Z