Song name
# A B C D E F G H I J K L M N O P Q R S T U V W X Y Z

Misc Computer Games - Cosmo Canyon Theme tab

-------------------------------------------------------------------------------
			     cosmo canyon - final fantasy 7
-------------------------------------------------------------------------------
Tabbed by: dylan1478
Email:dylan_1478_@hotmail.com

Tuning:standard

e|----------------15-15-17-15-17/19-19-19-17-15-17-19~~~~-17-15-17-19-17-15-|
B|-17-17-17-15-17-----------------------------------------------------------|
G|--------------------------------------------------------------------------|
D|--------------------------------------------------------------------------|
A|--------------------------------------------------------------------------|
E|--------------------------------------------------------------------------|

e|----------15----------|
B|-17----15----17-15-17-|
G|----------------------|
D|----------------------|
A|----------------------|
E|----------------------|




************************************

| /   slide up
| ~   vibrato
************************************
Tap to rate this tab
 
# A B C D E F G H I J K L M N O P Q R S T U V W X Y Z