Song name
# A B C D E F G H I J K L M N O P Q R S T U V W X Y Z

Misc Computer Games - Left 4 Dead 2 - Campaign Theme tab

e|------16-15--------12---13-12-10-13-12--17-12----13-9-10-12---13-12-9-12--|
B|--10-----------10---------------------------------------------------------|
G|--------------------------------------------------------------------------|
D|--------------------------------------------------------------------------|
A|--------------------------------------------------------------------------|
E|--------------------------------------------------------------------------|

e|---11-9-6-8-5---16-15------16-15---13-12-10-13-12--13-12-10-13-12---------|
B|-----------------------10-------------------------------------------------|
G|--------------------------------------------------------------------------|
D|--------------------------------------------------------------------------|
A|--------------------------------------------------------------------------|
E|--------------------------------------------------------------------------|

e|---11-9-6-8-5--------11-9-6-8-5-------11-9-6-8-5--------11-9-6-8-5--------|
B|--------------------------------------------------------------------------|
G|--------------------------------------------------------------------------|
D|--------------------------------------------------------------------------|
A|--------------------------------------------------------------------------|
E|--------------------------------------------------------------------------|
Based on L4D2: The Parish Campaign
Tabbed by: Motorave
Tuning: Standard
Tap to rate this tab
 
# A B C D E F G H I J K L M N O P Q R S T U V W X Y Z