Song name
# A B C D E F G H I J K L M N O P Q R S T U V W X Y Z

Misc Computer Games - Kings Quest Vi - Beauty And The Beast tab

Kings Quest VI - Beauty and the Beast
Tabbed by drawnacrol

3/4                       


   Lead Guitar
     E  E  E  E  E  E     E  E  T T S E  E  E     E  E  E  E  E  S T T  
E||-----------4--6--8--|--6--8--6h8p6-4--------|-----------------------|
B||--8--6--8-----------|-----------------8--4--|-----------4--6--8-6h8-|
G||--------------------|-----------------------|--7--5--7--------------|
D||--------------------|-----------------------|-----------------------|
A||--------------------|-----------------------|-----------------------|
E||--------------------|-----------------------|-----------------------|
 ||                                                                    |  
 || Rythm Guitar                                                       |            
E||--------------------|-----------------------|-----------------------|
B||--------------------|-----------------------|-----------------------|
G||--8-----------------|--8--------------------|-----------------------|
D||--8-----------------|--8--------------------|--8--------------------|
A||--6-----------------|--6--------------------|--8--------------------|
E||--------------------|-----------------------|--6--------------------|
 
 
   H.              E  E  E  E  E  E     E  E  T T S E  E  E   
|---------------|--------------------|--3--4--3h4p3----------|
|--6------------|-----------3--4--6--|--------------6--4-----|
|---------------|--5--4--5-----------|--------------------5--|
|---------------|--------------------|-----------------------|
|---------------|--------------------|-----------------------|
|---------------|--------------------|-----------------------|
|                                                            |            
|---------------|--------------------|-----------------------|
|---------------|--------------------|-----------------------|
|---------------|--5-----------------|--5--------------------|
|--8------------|--5-----------------|--5--------------------|
|--8------------|--3-----------------|--3--------------------|
|--6------------|--------------------|-----------------------| 

 
   E  E  E  E  E  S T T    H.               E   E   E   E   E   E   
|-----------------------|---------------|--------------------------|
|--------------3--4h3h4-|--3------------|--------------10--11--13--|
|--4--2--4--5-----------|---------------|--12--10--12--------------|
|-----------------------|---------------|--------------------------|
|-----------------------|---------------|--------------------------|
|-----------------------|---------------|--------------------------|
|                                                                  |            
|-----------------------|---------------|--------------------------|
|-----------------------|---------------|--------------------------|
|-----------------------|---------------|--8-----------------------|
|--5--------------------|--5------------|--8-----------------------|
|--5--------------------|--5------------|--6-----------------------|
|--3--------------------|--3------------|--------------------------| 

 
    E   E   T  T  S  E   E   E      E  E   E   E   E   S  T  T  
|--10--11--10h11p10-------------|------------------------------|
|-------------------13--11------|-----------------10--11-10h11-|
|---------------------------12--|--11--9--11--12---------------|
|-------------------------------|------------------------------|
|-------------------------------|------------------------------|
|-------------------------------|------------------------------|
|                                                              |            
|-------------------------------|------------------------------|
|-------------------------------|------------------------------|
|--7----------------------------|--2---------------------------|
|--8----------------------------|--4---------------------------|
|-10----------------------------|--5---------------------------|
|-------------------------------|------------------------------|  

 
    H.            Q       E  E  E  E  E  E     Q    H        Q     
|----------------------|--------------------|---------------------|
|--10------------------|--8--6--------------|---------------------|
|----------------11----|--------8--7--5-----|--4----5--------4----|
|----------------------|-----------------7--|---------------------|
|----------------------|--------------------|---------------------|
|----------------------|--------------------|---------------------|
|                                                                 |            
|----------------------|--------------------|---------------------|
|----------------------|--------------------|---------------------|
|--2-------------------|--0-----------------|---------------------|
|--4-------------------|--1-----------------|--5------------------|
|--5-------------------|--3-----------------|--5------------------|
|----------------------|--------------------|--3------------------|  
 
   H.              H.                         
|---------------|---------------||
|---------------|---------------||
|--5------------|--5------------||
|---------------|---------------||
|---------------|---------------||
|---------------|---------------||
|                               ||
|---------------|---------------||
|---------------|---------------||
|--5------------|--5------------||
|--5------------|--5------------||
|--3------------|--3------------||
|---------------|---------------||

Duration Legend
---------------
W - whole
H - half
Q - quarter
E - 8th
S - 16th
T - 32nd

Tablature Legend
----------------
h - hammer on
p - pull off
Tap to rate this tab
 
# A B C D E F G H I J K L M N O P Q R S T U V W X Y Z