Song name
# A B C D E F G H I J K L M N O P Q R S T U V W X Y Z

Misc Computer Games - Kings Quest V - Weeping Willow tab

Kings Quest V - Weeping Willow
Tabbed by drawnacrol


|--0--2--3--2--0-------------------0--2--3--2--0-----0--0-----------------|
|--0--------------3--1--0----------0--------------3-----------------------|
|-------------------------------------------------------2-----------------|
|--2--------------0-----2----------2--------------0-----------------------|
|-----------------------------------------------------------0---0---------|
|---------------------------0---------------------------------------------|

|-----5--3--2--0--2------0------------5--5--3--2--0----3--2--0--2---------|
|--1-----------------3---0------------1-----------------------------4-----|
|-------------------------------------------------------------------------|
|------------------------2---2--------------------------------------------|
|--0--------------2-------------------0-------------------------2---------|
|------------------------------------------------------2------------------|

|--0--2--3--2--0-------------------0--2--3--2--0-----0--0-----------------|
|--0--------------3--1--0----------0--------------3-----------------------|
|-------------------------------------------------------2-----------------|
|--2--------------0-----2----------2--------------0-----------------------|
|-------------------------------------------------------0-----0---0-------|
|---------------------------0---------------------------------------------|

|--5--5--3--2--0--2------0------------5--5--3--2--0----3--2--0--2--0------|
|--1-----------------3---0------------1-----------------------------------|
|-------------------------------------------------------------------------|
|------------------------2-----2------------------------------------------|
|--0--------------2-------------------0-----------------------------------|
|------------------------------------------------------2------------------|

|--3--2--0--2--0----3--2--0--2--------------------------------------------|
|-------------------------------4---0-------------------------------------|
|-------------------------------------------------------------------------|
|-----------------------------------2-------------------------------------|
|----------------------------2--------------------------------------------|
|--3----------------2-----------------------------------------------------|

Since this piece was wrote for a Midi guitar it does not translate very well 
to an actual guitar. Here are the notes as you hear them in the song but 
its not very practical to play, especially on a nylon string/acoustic guitar:

|--16---17--19--17---16---14---16---16------------------------------------|
|--17---------------------15--------17------------------------------------|
|--16---------------------14--------16---16-------------16----------------|
|--14---------------------12--------14------------------------------------|
|-------------------------------------------------------------------------|
|--------------------------------------------12---12----------------------|

|--16---17--19--17---16---14---12---12--------------------12--14--16------|
|--17---------------------10--------10--------12--14--15------------------|
|--16--------------------------------9----14------------------------------|
|--14---------------------12----------------------------------------------|
|-------------------------------------------------------------------------|
|-------------------------------------------------------------------------|

|--16---17--19--17---16---14---16---16------------------------------------|
|--17---------------------15--------17------------------------------------|
|--16---------------------14--------16---16-------------16----------------|
|--14---------------------12--------14------------------------------------|
|-------------------------------------------------------------------------|
|--------------------------------------------12---12----------------------|

|--16---17--19--17---16---14---12---12--------------------12--14--16------|
|--17---------------------10--------10--------12--14--15------------------|
|--16--------------------------------9----14------------------------------|
|--14---------------------12----------------------------------------------|
|-------------------------------------------------------------------------|
|-------------------------------------------------------------------------|

|--17---24----------------------------------------------------------------|
|-------24----------------------------------------------------------------|
|-------19----------------------------------------------------------------|
|-------------------------------------------------------------------------|
|-------17----------------------------------------------------------------|
|-------------------------------------------------------------------------|

Here is the same section but an octave lower and in a more practical position to play:

|---4--5--7--5---4---------2---4----4-----------------------------------|
|---5----------------------3--------5-----------------------------------|
|---4----------------------2--------4---4-------------4-----------------|
|--------------------------0--------------------------------------------|
|-----------------------------------------------------------------------|
|--------------------------------------------0---0----------------------|

|--4---5--7--5---4---2---0---0--------------------2--4------------------|
|--5-------------------------------------2--3--5------------------------|
|--4-----------------2-------2-----2--4---------------------------------|
|--------------------0-------2------------------------------------------|
|-----------------------------------------------------------------------|
|-----------------------------------------------------------------------|

|---4--5--7--5---4---------2---4----4-----------------------------------|
|---5----------------------3--------5-----------------------------------|
|---4----------------------2--------4---4-------------4-----------------|
|--------------------------0--------------------------------------------|
|-----------------------------------------------------------------------|
|--------------------------------------------0---0----------------------|

|--4---5--7--5---4---2---0---0--------------------2--4--5---------------|
|--5-------------------------------------2--3--5------------------------|
|--4-----------------2-------2-----2--4---------------------------------|
|--------------------0-------2------------------------------------------|
|-----------------------------------------------------------------------|
|-----------------------------------------------------------------------|

Finishing Chord:

|----7----|     |---7---|     |---7---|
|---------|     |---9---|     |---9---|
|----9----| or  |---9---| or  |---9---|
|---------|     |---9---|     |-------|
|----7----|     |---7---|     |-------|
|---------|     |-------|     |-------|
Tap to rate this tab
 
# A B C D E F G H I J K L M N O P Q R S T U V W X Y Z