Song name
# A B C D E F G H I J K L M N O P Q R S T U V W X Y Z

Misc Computer Games - The Dishwasher Theme tab

Hi this ma first tab and hopefully ill figure out the other Solos as i go about my
day. Here we go.
This the Tab for The Game The Dishwasher this is the First Solo u play in the game.Enjoy.

Opening
e|--------------------------------------------------------------------------|
B|--------------------------------------------------------------------------|
G|-------10---14---10----12---15---12---9---12---9---10---14---10---11---15-|
D|----12--------------14-------------10------------12------------13---------|
A|--------------------------------------------------------------------------|
E|--------------------------------------------------------------------------|

e|--------------------------------------------------------------------------|
B|--------------------------------------------------------------------------|
G|--11---7---10---7---9---12---9---9---12---9----15\7-----------------------|
D|----8------------10-----------11------------------------------------------|
A|--------------------------------------------------------------------------|
E|--------------------------------------------------------------------------|

Riff (Let it Ring BEFORE Sliding)
e|-------------------------------------------------------------------|
B|-------------------------------------------------------------------|
G|-------------------------------------------------------------------|
D|--12/10/9/8--------------------------------------------------------| X2
A|-------------------------------------------------------------------|
E|-------------------------------------------------------------------|

the Fast bit(Really High Tempo Here)
e|--------------------------------------------------------------------------|
B|--------------------------------------------------------------------------|
G|--------------------------------------------------------------------------|
D|---15-12-12-14-12-12-15-15-12-12-15-15-12---------------------------------|
A|--------------------------------------------------------------------------|
E|--------------------------------------------------------------------------|

Slides Outro (Let it Ring Before Sliding again)
e|---------------------------------------------------------------------|
B|---------------------------------------------------------------------|
G|---------------------------------------------------------------------|
D|--12/3/15/5/17/7/19--------------------------------------------------| X2
A|---------------------------------------------------------------------|
E|---------------------------------------------------------------------|

P= Pull Off
H= Hammer on
/= Slide

Listen to the Solo on Utube for the Timing Look out for the Next two (If i Remember to 
)
My Tip:Turn the Reverb on your amp to half way
Tap to rate this tab
 
# A B C D E F G H I J K L M N O P Q R S T U V W X Y Z