Song name
# A B C D E F G H I J K L M N O P Q R S T U V W X Y Z

Misc Computer Games - Prince Of Persia Warrior Within - Welcome Within tab

-------------------------------------------------------------------------------
			     Welcome Within - Stuart Chatwood
-------------------------------------------------------------------------------

Tabbed by: PoPo666	
Email: kemilk@onet.eu

Tuning: Drop D

Riff 1 (bass):

G|------------------------|
D|------------------------|
A|------------------------| x8
D|-0-0-0-00-00-0-1-3-1----|

Riff 1 (guitar at 0:18):
 
PM>>>>>>>>>>>>>>>>>>>1.2.3 PM>>>>>           4.
e|------------------------|-------------------|
B|------------------------|-------------------|
G|------------------------|--------7776\8-----|
D|------------------------|--------7776\8-----| <- this is probably wrong, sorry guys
A|------------------------|--------5554\6-----|
D|-0-0-0-00-00-0-1-3-1----|-0-0-0-0-----------|

Then play Riff 1 but without PM

Riff 2:
e|------------------------------------------------------------|
B|------------------------------------------------------------|
G|------------------------------------------------------------|
D|------------------------------------------------------------|
A|------------------------------------------------------------|
E|-0-0-0-00-00-000-1-1-1-11-11-111-5-5-5-55-55-555-8--7--4----|

e|----------------------------------------------------------------|
B|----------------------------------------------------------------|
G|----------------------------------------------------------------|
D|----------------------------------------------------------------|
A|----------------------------------------------------------------|
E|-0-0-0-00-00-000-1-1-1-11-11-111-5-5-5-55-55-555-8-7-8-7-4-1----|

Repeat Riff 1 till fade out.

************************************

| /   slide up
| \   slide down
| h   hammer-on
| p   pull-off
| ~   vibrato
| +   harmonic
| x   Mute note
| b   Bend
| pb  Pre-bend
| br  Bend release
| pbr Pre-bend release
| brb Bend release bend

************************************
Tap to rate this tab
 
# A B C D E F G H I J K L M N O P Q R S T U V W X Y Z