Song name
# A B C D E F G H I J K L M N O P Q R S T U V W X Y Z

Misc Computer Games - Prince Of Persia Warrior Within - The Dahaka Chase tab

-------------------------------------------------------------------------------
			 The Dahaka Chase - Stuart Chatwood
-------------------------------------------------------------------------------
Tabbed by: PoPo666	
Email: kemilk@onet.eu

Tuning: Drop D

Hey guys, this is my first ever tab so please go easy on me. 
There's missing one or two notes I couldn't figure out at the end of riff 1, sorry.
Any suggestions or corrections please email me.
Enjoy!

Intro riff:
e|------------|
B|------------|
G|------------|
D|--0-0-1-----| x4
A|--0-0-1-----|
D|--0-0-1-----|

Riff 1:
e|--------------------------------------------------|
B|--------------------------------------------------|
G|--------------------------------------------------|
D|--------------------------------------------------| x2
A|-0\7-0\8-00\7-0\8-00\7-0\8-00\7-0\8---------------|
D|-0\7-0\8-00\7-0\8-00\7-0\8-00\7-0\8---------------|

Riff 2:
PM throughout 
e|--------------------------------------------------|
B|--------------------------------------------------|
G|--------------------------------------------------|
D|--------------------------------------------------| x2
A|-0\7-0\8-00\7-0\8-00\7-0\8-00\7-0\8---------------|
D|-0\7-0\8-00\7-0\8-00\7-0\8-00\7-0\8---------------|

Riff 3:
e|--------------------------------------------------|
B|--------------------------------------------------|
G|--------------------------------------------------|
D|--------------------------------------------------|
A|--------------------------------------------------| x2
D|-0\12-0\13-00\12-0\13-00\12-0\13-00\12-0\15-------|

e|--------------------------------------------------|
B|--------------------------------------------------|
G|--------------------------------------------------|
D|--------------------------------------------------| x2
A|--------------------------------------------------|
D|-0\15-0\13-0\15-0\13-0\12h13p12-------------------|

Repeat Intro riff x8

Riff 4:                     1.2.                 3.
e|-----------------------------|------------------|
B|-----------------------------|------------------|
G|-----------------------------|------------------|
D|-0-12-11-7-10---0-10-9-5-8---|-0-12-11-7-10-----|
A|-0-12-11-7-10---0-10-9-5-8---|-0-12-11-7-10-----|
D|-0-12-11-7-10---0-10-9-5-8---|-0-12-11-7-10-----|

Repeat Intro riff x8

Riff 5:
PM first two times
e|-------------------------------------|
B|-------------------------------------|
G|-------------------------------------|
D|-0-5-4-0-1-3-1-0---------------------| x4
A|-0-5-4-0-1-3-1-0---------------------|
D|-0-5-4-0-1-3-1-0---------------------|

Repeat Riff 1 to fade out


************************************

| /   slide up
| \   slide down
| h   hammer-on
| p   pull-off
| ~   vibrato
| +   harmonic
| x   Mute note
| b   Bend
| pb  Pre-bend
| br  Bend release
| pbr Pre-bend release
| brb Bend release bend

************************************
Tap to rate this tab
 
# A B C D E F G H I J K L M N O P Q R S T U V W X Y Z